  0
SECTION
  2
HEADER
  9
$ACADVER
  1
AC1015
  9
$ACADMAINTVER
 70
     6
  9
$DWGCODEPAGE
  3
ANSI_1252
  9
$INSBASE
 10
0.0
 20
0.0
 30
0.0
  9
$EXTMIN
 10
0.0
 20
0.0
 30
0.0
  9
$EXTMAX
 10
11.0
 20
8.5
 30
0.0
  9
$LIMMIN
 10
0.0
 20
0.0
  9
$LIMMAX
 10
11.0
 20
8.5
  9
$ORTHOMODE
 70
     0
  9
$REGENMODE
 70
     1
  9
$FILLMODE
 70
     1
  9
$QTEXTMODE
 70
     0
  9
$MIRRTEXT
 70
     1
  9
$LTSCALE
 40
1.0
  9
$ATTMODE
 70
     1
  9
$TEXTSIZE
 40
0.1666666667
  9
$TRACEWID
 40
0.05
  9
$TEXTSTYLE
  7
Standard
  9
$CLAYER
  8
0
  9
$CELTYPE
  6
ByLayer
  9
$CECOLOR
 62
   256
  9
$CELTSCALE
 40
1.0
  9
$DISPSILH
 70
     0
  9
$DIMSCALE
 40
1.0
  9
$DIMASZ
 40
0.09
  9
$DIMEXO
 40
0.05
  9
$DIMDLI
 40
0.38
  9
$DIMRND
 40
0.0
  9
$DIMDLE
 40
0.0
  9
$DIMEXE
 40
0.0625
  9
$DIMTP
 40
0.0
  9
$DIMTM
 40
0.0
  9
$DIMTXT
 40
0.1666666667
  9
$DIMCEN
 40
0.09
  9
$DIMTSZ
 40
0.0
  9
$DIMTOL
 70
     0
  9
$DIMLIM
 70
     0
  9
$DIMTIH
 70
     1
  9
$DIMTOH
 70
     1
  9
$DIMSE1
 70
     0
  9
$DIMSE2
 70
     0
  9
$DIMTAD
 70
     0
  9
$DIMZIN
 70
     0
  9
$DIMBLK
  1

  9
$DIMASO
 70
     1
  9
$DIMSHO
 70
     1
  9
$DIMPOST
  1

  9
$DIMAPOST
  1

  9
$DIMALT
 70
     0
  9
$DIMALTD
 70
     2
  9
$DIMALTF
 40
25.4
  9
$DIMLFAC
 40
1.0
  9
$DIMTOFL
 70
     0
  9
$DIMTVP
 40
0.0
  9
$DIMTIX
 70
     0
  9
$DIMSOXD
 70
     0
  9
$DIMSAH
 70
     0
  9
$DIMBLK1
  1

  9
$DIMBLK2
  1

  9
$DIMSTYLE
  2
Standard
  9
$DIMCLRD
 70
     0
  9
$DIMCLRE
 70
     0
  9
$DIMCLRT
 70
     0
  9
$DIMTFAC
 40
1.0
  9
$DIMGAP
 40
0.06
  9
$DIMJUST
 70
     0
  9
$DIMSD1
 70
     0
  9
$DIMSD2
 70
     0
  9
$DIMTOLJ
 70
     1
  9
$DIMTZIN
 70
     0
  9
$DIMALTZ
 70
     0
  9
$DIMALTTZ
 70
     0
  9
$DIMUPT
 70
     0
  9
$DIMDEC
 70
     2
  9
$DIMTDEC
 70
     2
  9
$DIMALTU
 70
     2
  9
$DIMALTTD
 70
     2
  9
$DIMTXSTY
  7
Standard
  9
$DIMAUNIT
 70
     0
  9
$DIMADEC
 70
     0
  9
$DIMALTRND
 40
0.0
  9
$DIMAZIN
 70
     0
  9
$DIMDSEP
 70
    46
  9
$DIMATFIT
 70
     3
  9
$DIMFRAC
 70
     0
  9
$DIMLDRBLK
  1

  9
$DIMLUNIT
 70
     2
  9
$DIMLWD
 70
    -2
  9
$DIMLWE
 70
    -2
  9
$DIMTMOVE
 70
     0
  9
$LUNITS
 70
     2
  9
$LUPREC
 70
     2
  9
$SKETCHINC
 40
0.1
  9
$FILLETRAD
 40
0.5
  9
$AUNITS
 70
     0
  9
$AUPREC
 70
     0
  9
$MENU
  1
.
  9
$ELEVATION
 40
0.0
  9
$PELEVATION
 40
0.0
  9
$THICKNESS
 40
0.0
  9
$LIMCHECK
 70
     0
  9
$CHAMFERA
 40
0.0
  9
$CHAMFERB
 40
0.0
  9
$CHAMFERC
 40
0.0
  9
$CHAMFERD
 40
0.0
  9
$SKPOLY
 70
     0
  9
$TDCREATE
 40
2456937.428331366
  9
$TDUCREATE
 40
2456937.636664699
  9
$TDUPDATE
 40
2456937.428334086
  9
$TDUUPDATE
 40
2456937.636667419
  9
$TDINDWG
 40
0.0000000116
  9
$TDUSRTIMER
 40
0.0000000116
  9
$USRTIMER
 70
     1
  9
$ANGBASE
 50
0.0
  9
$ANGDIR
 70
     0
  9
$PDMODE
 70
     0
  9
$PDSIZE
 40
-1.0
  9
$PLINEWID
 40
0.0
  9
$SPLFRAME
 70
     0
  9
$SPLINETYPE
 70
     6
  9
$SPLINESEGS
 70
     8
  9
$HANDSEED
  5
3EF
  9
$SURFTAB1
 70
     6
  9
$SURFTAB2
 70
     6
  9
$SURFTYPE
 70
     6
  9
$SURFU
 70
     6
  9
$SURFV
 70
     6
  9
$UCSBASE
  2

  9
$UCSNAME
  2

  9
$UCSORG
 10
0.0
 20
0.0
 30
0.0
  9
$UCSXDIR
 10
1.0
 20
0.0
 30
0.0
  9
$UCSYDIR
 10
0.0
 20
1.0
 30
0.0
  9
$UCSORTHOREF
  2

  9
$UCSORTHOVIEW
 70
     0
  9
$UCSORGTOP
 10
0.0
 20
0.0
 30
0.0
  9
$UCSORGBOTTOM
 10
0.0
 20
0.0
 30
0.0
  9
$UCSORGLEFT
 10
0.0
 20
0.0
 30
0.0
  9
$UCSORGRIGHT
 10
0.0
 20
0.0
 30
0.0
  9
$UCSORGFRONT
 10
0.0
 20
0.0
 30
0.0
  9
$UCSORGBACK
 10
0.0
 20
0.0
 30
0.0
  9
$PUCSBASE
  2

  9
$PUCSNAME
  2

  9
$PUCSORG
 10
0.0
 20
0.0
 30
0.0
  9
$PUCSXDIR
 10
1.0
 20
0.0
 30
0.0
  9
$PUCSYDIR
 10
0.0
 20
1.0
 30
0.0
  9
$PUCSORTHOREF
  2

  9
$PUCSORTHOVIEW
 70
     0
  9
$PUCSORGTOP
 10
0.0
 20
0.0
 30
0.0
  9
$PUCSORGBOTTOM
 10
0.0
 20
0.0
 30
0.0
  9
$PUCSORGLEFT
 10
0.0
 20
0.0
 30
0.0
  9
$PUCSORGRIGHT
 10
0.0
 20
0.0
 30
0.0
  9
$PUCSORGFRONT
 10
0.0
 20
0.0
 30
0.0
  9
$PUCSORGBACK
 10
0.0
 20
0.0
 30
0.0
  9
$USERI1
 70
     0
  9
$USERI2
 70
     0
  9
$USERI3
 70
     0
  9
$USERI4
 70
     0
  9
$USERI5
 70
     0
  9
$USERR1
 40
0.0
  9
$USERR2
 40
0.0
  9
$USERR3
 40
0.0
  9
$USERR4
 40
0.0
  9
$USERR5
 40
0.0
  9
$WORLDVIEW
 70
     1
  9
$SHADEDGE
 70
     3
  9
$SHADEDIF
 70
    70
  9
$TILEMODE
 70
     1
  9
$MAXACTVP
 70
    64
  9
$PINSBASE
 10
0.0
 20
0.0
 30
0.0
  9
$PLIMCHECK
 70
     0
  9
$PEXTMIN
 10
1.0000000000E+20
 20
1.0000000000E+20
 30
1.0000000000E+20
  9
$PEXTMAX
 10
-1.0000000000E+20
 20
-1.0000000000E+20
 30
-1.0000000000E+20
  9
$PLIMMIN
 10
0.0
 20
0.0
  9
$PLIMMAX
 10
12.0
 20
9.0
  9
$UNITMODE
 70
     0
  9
$VISRETAIN
 70
     1
  9
$PLINEGEN
 70
     0
  9
$PSLTSCALE
 70
     1
  9
$TREEDEPTH
 70
  3020
  9
$CMLSTYLE
  2
Standard
  9
$CMLJUST
 70
     0
  9
$CMLSCALE
 40
1.0
  9
$PROXYGRAPHICS
 70
     1
  9
$MEASUREMENT
 70
     0
  9
$CELWEIGHT
370
    -1
  9
$ENDCAPS
280
     0
  9
$JOINSTYLE
280
     0
  9
$LWDISPLAY
290
     1
  9
$INSUNITS
 70
     1
  9
$HYPERLINKBASE
  1

  9
$STYLESHEET
  1

  9
$XEDIT
290
     1
  9
$CEPSNTYPE
380
     0
  9
$PSTYLEMODE
290
     1
  9
$FINGERPRINTGUID
  2
{F3123B0E-F312-4955-A899-233BF6CBCA20}
  9
$VERSIONGUID
  2
{FAEB1C32-E019-11D5-929B-00C0DF256EC4}
  9
$EXTNAMES
290
     1
  9
$PSVPSCALE
 40
0.0
  9
$OLESTARTUP
290
     0
  0
ENDSEC
  0
SECTION
  2
CLASSES
  0
CLASS
  1
ACDBDICTIONARYWDFLT
  2
AcDbDictionaryWithDefault
  3
ObjectDBX Classes
 90
        0
280
     0
281
     0
  0
CLASS
  1
VISUALSTYLE
  2
AcDbVisualStyle
  3
ObjectDBX Classes
 90
     4095
280
     0
281
     0
  0
CLASS
  1
MATERIAL
  2
AcDbMaterial
  3
ObjectDBX Classes
 90
     1153
280
     0
281
     0
  0
CLASS
  1
SCALE
  2
AcDbScale
  3
ObjectDBX Classes
 90
     1153
280
     0
281
     0
  0
CLASS
  1
SUN
  2
AcDbSun
  3
SCENEOE
 90
     1153
280
     0
281
     0
  0
CLASS
  1
ACDBPLACEHOLDER
  2
AcDbPlaceHolder
  3
ObjectDBX Classes
 90
        0
280
     0
281
     0
  0
CLASS
  1
LAYOUT
  2
AcDbLayout
  3
ObjectDBX Classes
 90
        0
280
     0
281
     0
  0
ENDSEC
  0
SECTION
  2
TABLES
  0
TABLE
  2
VPORT
  5
8
330
0
100
AcDbSymbolTable
 70
     1
  0
VPORT
  5
29
330
8
100
AcDbSymbolTableRecord
100
AcDbViewportTableRecord
  2
*Active
 70
     0
 10
0.0
 20
0.0
 11
1.0
 21
1.0
 12
5.5
 22
4.25
 13
0.0
 23
0.0
 14
0.5
 24
0.5
 15
0.5
 25
0.5
 16
0.0
 26
0.0
 36
1.0
 17
0.0
 27
0.0
 37
0.0
 40
8.5
 41
1.2941176471
 42
50.0
 43
0.0
 44
0.0
 50
0.0
 51
0.0
 71
     0
 72
  2000
 73
     1
 74
     3
 75
     0
 76
     0
 77
     0
 78
     0
281
     0
 65
     1
110
0.0
120
0.0
130
0.0
111
1.0
121
0.0
131
0.0
112
0.0
122
1.0
132
0.0
 79
     0
146
0.0
  0
ENDTAB
  0
TABLE
  2
LTYPE
  5
5
330
0
100
AcDbSymbolTable
 70
     6
  0
LTYPE
  5
14
330
5
100
AcDbSymbolTableRecord
100
AcDbLinetypeTableRecord
  2
ByBlock
 70
     0
  3

 72
    65
 73
     0
 40
0.0
  0
LTYPE
  5
15
330
5
100
AcDbSymbolTableRecord
100
AcDbLinetypeTableRecord
  2
ByLayer
 70
     0
  3

 72
    65
 73
     0
 40
0.0
  0
LTYPE
  5
16
330
5
100
AcDbSymbolTableRecord
100
AcDbLinetypeTableRecord
  2
Continuous
 70
     0
  3
Solid line
 72
    65
 73
     0
 40
0.0
  0
LTYPE
  5
6A
330
5
100
AcDbSymbolTableRecord
100
AcDbLinetypeTableRecord
  2
HIDDEN
 70
     0
  3
Hidden __ __ __ __ __ __ __ __ __ __ __ __ __ __
 72
    65
 73
     2
 40
0.075
 49
0.05
 74
     0
 49
-0.025
 74
     0
  0
LTYPE
  5
6B
330
5
100
AcDbSymbolTableRecord
100
AcDbLinetypeTableRecord
  2
PHANTOM
 70
     0
  3
Phantom ______  __  __  ______  __  __  ______
 72
    65
 73
     6
 40
0.5
 49
0.25
 74
     0
 49
-0.05
 74
     0
 49
0.05
 74
     0
 49
-0.05
 74
     0
 49
0.05
 74
     0
 49
-0.05
 74
     0
  0
LTYPE
  5
6C
330
5
100
AcDbSymbolTableRecord
100
AcDbLinetypeTableRecord
  2
CENTER
 70
     0
  3
Center ____ _ ____ _ ____ _ ____ _ ____ _ ____
 72
    65
 73
     4
 40
0.4
 49
0.25
 74
     0
 49
-0.05
 74
     0
 49
0.05
 74
     0
 49
-0.05
 74
     0
  0
LTYPE
  5
6D
330
5
100
AcDbSymbolTableRecord
100
AcDbLinetypeTableRecord
  2
CENTERX2
 70
     0
  3
Center (2x) ________  __  ________  __  _____
 72
    65
 73
     4
 40
0.8
 49
0.5
 74
     0
 49
-0.1
 74
     0
 49
0.1
 74
     0
 49
-0.1
 74
     0
  0
LTYPE
  5
6E
330
5
100
AcDbSymbolTableRecord
100
AcDbLinetypeTableRecord
  2
DOT2
 70
     0
  3
Dot (.5x) ........................................
 72
    65
 73
     2
 40
0.025
 49
0.0
 74
     0
 49
-0.025
 74
     0
  0
ENDTAB
  0
TABLE
  2
LAYER
  5
2
330
0
100
AcDbSymbolTable
 70
     3
  0
LAYER
  5
10
330
2
100
AcDbSymbolTableRecord
100
AcDbLayerTableRecord
  2
0
 70
     0
 62
     7
  6
Continuous
370
    -3
390
F
  0
LAYER
  5
6F
330
2
100
AcDbSymbolTableRecord
100
AcDbLayerTableRecord
  2
SLD-0
 70
     0
 62
    -7
  6
Continuous
370
    -3
390
F
  0
LAYER
  5
70
330
2
100
AcDbSymbolTableRecord
100
AcDbLayerTableRecord
  2
FORMAT
 70
     0
 62
     7
  6
Continuous
370
    -3
390
F
  0
ENDTAB
  0
TABLE
  2
STYLE
  5
3
330
0
100
AcDbSymbolTable
 70
     2
  0
STYLE
  5
11
330
3
100
AcDbSymbolTableRecord
100
AcDbTextStyleTableRecord
  2
Standard
 70
     0
 40
0.0
 41
1.0
 50
0.0
 71
     0
 42
0.1666666667
  3
txt
  4

  0
STYLE
  5
1B5
330
3
100
AcDbSymbolTableRecord
100
AcDbTextStyleTableRecord
  2
SLDTEXTSTYLE0
 70
     0
 40
0.0
 41
0.605
 50
0.0
 71
     0
 42
0.1666666667
  3
TXT
  4

  0
ENDTAB
  0
TABLE
  2
VIEW
  5
6
330
0
100
AcDbSymbolTable
 70
     0
  0
ENDTAB
  0
TABLE
  2
UCS
  5
7
330
0
100
AcDbSymbolTable
 70
     0
  0
ENDTAB
  0
TABLE
  2
APPID
  5
9
330
0
100
AcDbSymbolTable
 70
     1
  0
APPID
  5
12
330
9
100
AcDbSymbolTableRecord
100
AcDbRegAppTableRecord
  2
ACAD
 70
     0
  0
ENDTAB
  0
TABLE
  2
DIMSTYLE
  5
A
330
0
100
AcDbSymbolTable
 70
     1
100
AcDbDimStyleTable
  0
DIMSTYLE
105
27
330
A
100
AcDbSymbolTableRecord
100
AcDbDimStyleTableRecord
  2
Standard
 70
     0
178
     0
340
11
  0
ENDTAB
  0
TABLE
  2
BLOCK_RECORD
  5
1
330
0
100
AcDbSymbolTable
 70
     1
  0
BLOCK_RECORD
  5
1F
330
1
100
AcDbSymbolTableRecord
100
AcDbBlockTableRecord
  2
*Model_Space
340
22
  0
BLOCK_RECORD
  5
1B
330
1
100
AcDbSymbolTableRecord
100
AcDbBlockTableRecord
  2
*Paper_Space
340
1E
  0
BLOCK_RECORD
  5
23
330
1
100
AcDbSymbolTableRecord
100
AcDbBlockTableRecord
  2
*Paper_Space0
340
26
  0
ENDTAB
  0
ENDSEC
  0
SECTION
  2
BLOCKS
  0
BLOCK
  5
20
330
1F
100
AcDbEntity
  8
0
100
AcDbBlockBegin
  2
*Model_Space
 70
     0
 10
0.0
 20
0.0
 30
0.0
  3
*Model_Space
  1
*Model_Space
  0
ENDBLK
  5
21
330
1F
100
AcDbEntity
  8
0
100
AcDbBlockEnd
  0
BLOCK
  5
1C
330
1B
100
AcDbEntity
 67
     1
  8
0
100
AcDbBlockBegin
  2
*Paper_Space
 70
     0
 10
0.0
 20
0.0
 30
0.0
  3
*Paper_Space
  1
*Paper_Space
  0
ENDBLK
  5
1D
330
1B
100
AcDbEntity
 67
     1
  8
0
100
AcDbBlockEnd
  0
BLOCK
  5
24
330
23
100
AcDbEntity
  8
0
100
AcDbBlockBegin
  2
*Paper_Space0
 70
     0
 10
0.0
 20
0.0
 30
0.0
  3
*Paper_Space0
  1
*Paper_Space0
  0
ENDBLK
  5
25
330
23
100
AcDbEntity
  8
0
100
AcDbBlockEnd
  0
ENDSEC
  0
SECTION
  2
ENTITIES
  0
LINE
  5
71
330
1F
100
AcDbEntity
  8
0
  6
Continuous
 62
     7
370
    30
100
AcDbLine
 10
5.3647618012
 20
6.7326258325
 30
0.0
 11
5.3647618012
 21
6.7245048464
 31
0.0
  0
LINE
  5
72
330
1F
100
AcDbEntity
  8
0
  6
Continuous
 62
     7
370
    30
100
AcDbLine
 10
5.3647618012
 20
6.6974024794
 30
0.0
 11
5.3647618012
 21
6.6892814933
 31
0.0
  0
LINE
  5
73
330
1F
100
AcDbEntity
  8
0
  6
Continuous
 62
     7
370
    30
100
AcDbLine
 10
5.3647618012
 20
6.6621789797
 30
0.0
 11
5.3647618012
 21
6.6540581402
 31
0.0
  0
LINE
  5
74
330
1F
100
AcDbEntity
  8
0
  6
Continuous
 62
     7
370
    30
100
AcDbLine
 10
5.3647618012
 20
6.6269556266
 30
0.0
 11
5.3647618012
 21
6.6188346404
 31
0.0
  0
LINE
  5
75
330
1F
100
AcDbEntity
  8
0
  6
Continuous
 62
     7
370
    30
100
AcDbLine
 10
5.3647618012
 20
6.5917321268
 30
0.0
 11
5.3647618012
 21
6.5836112873
 31
0.0
  0
LINE
  5
76
330
1F
100
AcDbEntity
  8
0
  6
Continuous
 62
     7
370
    30
100
AcDbLine
 10
5.548761809
 20
6.5720821005
 30
0.0
 11
5.548761809
 21
6.572324391
 31
0.0
  0
LINE
  5
77
330
1F
100
AcDbEntity
  8
0
  6
Continuous
 62
     7
370
    30
100
AcDbLine
 10
5.548761809
 20
6.5994625442
 30
0.0
 11
5.548761809
 21
6.6075477441
 31
0.0
  0
LINE
  5
78
330
1F
100
AcDbEntity
  8
0
  6
Continuous
 62
     7
370
    30
100
AcDbLine
 10
5.548761809
 20
6.6346858973
 30
0.0
 11
5.548761809
 21
6.6427712439
 31
0.0
  0
LINE
  5
79
330
1F
100
AcDbEntity
  8
0
  6
Continuous
 62
     7
370
    30
100
AcDbLine
 10
5.548761809
 20
6.669909397
 30
0.0
 11
5.548761809
 21
6.677994597
 31
0.0
  0
LINE
  5
7A
330
1F
100
AcDbEntity
  8
0
  6
Continuous
 62
     7
370
    30
100
AcDbLine
 10
5.548761809
 20
6.7051327501
 30
0.0
 11
5.548761809
 21
6.7132180967
 31
0.0
  0
LINE
  5
7B
330
1F
100
AcDbEntity
  8
0
  6
Continuous
 62
     7
370
    30
100
AcDbLine
 10
5.548761809
 20
6.7403562499
 30
0.0
 11
5.548761809
 21
6.7484414498
 31
0.0
  0
LINE
  5
7C
330
1F
100
AcDbEntity
  8
0
  6
Continuous
 62
     7
370
    30
100
AcDbLine
 10
5.2254986433
 20
6.620689659
 30
0.0
 11
5.2223928109
 21
6.6090984329
 31
0.0
  0
LINE
  5
7D
330
1F
100
AcDbEntity
  8
0
  6
Continuous
 62
     7
370
    30
100
AcDbLine
 10
5.2708971539
 20
6.6085251195
 30
0.0
 11
5.2254986433
 21
6.620689659
 31
0.0
  0
LWPOLYLINE
  5
7E
330
1F
100
AcDbEntity
  8
0
  6
Continuous
 62
     7
370
    30
100
AcDbPolyline
 90
        3
 70
   128
 43
0.0
 10
5.2742618134
 20
6.6340820776
 10
5.2796270014
 20
6.6329234243
 10
5.2802029731
 20
6.6326450542
  0
LWPOLYLINE
  5
7F
330
1F
100
AcDbEntity
  8
0
  6
Continuous
 62
     7
370
    30
100
AcDbPolyline
 90
        3
 70
   128
 43
0.0
 10
5.2802029731
 20
6.6095192147
 10
5.2763794539
 20
6.6082558426
 10
5.2708971539
 20
6.6085251195
  0
LINE
  5
80
330
1F
100
AcDbEntity
  8
0
  6
Continuous
 62
     7
370
    30
100
AcDbLine
 10
5.2417618088
 20
6.6340820776
 30
0.0
 11
5.2742618134
 21
6.6340820776
 31
0.0
  0
ARC
  5
81
330
1F
100
AcDbEntity
  8
0
  6
Continuous
 62
     7
370
    30
100
AcDbCircle
 10
5.2417618051
 20
6.7270821351
 30
0.0
 40
0.093000000000003
100
AcDbArc
 50
109.6973630774
 51
270.0
  0
LINE
  5
82
330
1F
100
AcDbEntity
  8
0
  6
Continuous
 62
     7
370
    30
100
AcDbLine
 10
5.3283988155
 20
6.8568781972
 30
0.0
 11
5.2104159842
 21
6.8146402984
 31
0.0
  0
ARC
  5
83
330
1F
100
AcDbEntity
  8
0
  6
Continuous
 62
     7
370
    30
100
AcDbCircle
 10
5.3243541946
 20
6.8681760186
 30
0.0
 40
0.0120000000000006
100
AcDbArc
 50
289.6973630774
 51
322.2281218619
  0
ARC
  5
84
330
1F
100
AcDbEntity
  8
0
  6
Continuous
 62
     7
370
    30
100
AcDbCircle
 10
5.4567618051
 20
6.7655741986
 30
0.0
 40
0.1555079365079411
100
AcDbArc
 50
37.7718781381
 51
142.2281218619
  0
ARC
  5
85
330
1F
100
AcDbEntity
  8
0
  6
Continuous
 62
     7
370
    30
100
AcDbCircle
 10
5.5891694156
 20
6.8681760186
 30
0.0
 40
0.0120000000000012
100
AcDbArc
 50
217.7718781381
 51
250.3026369226
  0
LINE
  5
86
330
1F
100
AcDbEntity
  8
0
  6
Continuous
 62
     7
370
    30
100
AcDbLine
 10
5.703107626
 20
6.8146402984
 30
0.0
 11
5.5851247947
 21
6.8568781972
 31
0.0
  0
ARC
  5
87
330
1F
100
AcDbEntity
  8
0
  6
Continuous
 62
     7
370
    30
100
AcDbCircle
 10
5.6717618051
 20
6.7270821351
 30
0.0
 40
0.0930000000000026
100
AcDbArc
 50
270.0
 51
70.3026369226
  0
LINE
  5
88
330
1F
100
AcDbEntity
  8
0
  6
Continuous
 62
     7
370
    30
100
AcDbLine
 10
5.6392617968
 20
6.6340820776
 30
0.0
 11
5.6717618014
 21
6.6340820776
 31
0.0
  0
LWPOLYLINE
  5
89
330
1F
100
AcDbEntity
  8
0
  6
Continuous
 62
     7
370
    30
100
AcDbPolyline
 90
        3
 70
   128
 43
0.0
 10
5.6426264563
 20
6.6085251195
 10
5.6371441563
 20
6.6082558426
 10
5.6333206371
 20
6.6095192147
  0
LWPOLYLINE
  5
8A
330
1F
100
AcDbEntity
  8
0
  6
Continuous
 62
     7
370
    30
100
AcDbPolyline
 90
        3
 70
   128
 43
0.0
 10
5.6333206371
 20
6.6326450542
 10
5.6338966088
 20
6.6329234243
 10
5.6392617968
 20
6.6340820776
  0
LINE
  5
8B
330
1F
100
AcDbEntity
  8
0
  6
Continuous
 62
     7
370
    30
100
AcDbLine
 10
5.6880249669
 20
6.620689659
 30
0.0
 11
5.6426264563
 21
6.6085251195
 31
0.0
  0
LINE
  5
8C
330
1F
100
AcDbEntity
  8
0
  6
Continuous
 62
     7
370
    30
100
AcDbLine
 10
5.6911307993
 20
6.6090984329
 30
0.0
 11
5.6880249669
 21
6.620689659
 31
0.0
  0
LINE
  5
8D
330
1F
100
AcDbEntity
  8
0
  6
Continuous
 62
     7
370
    30
100
AcDbLine
 10
5.6911307993
 20
6.6090984329
 30
0.0
 11
5.6457322888
 21
6.5969340401
 31
0.0
  0
LINE
  5
8E
330
1F
100
AcDbEntity
  8
0
  6
Continuous
 62
     7
370
    30
100
AcDbLine
 10
5.6457322888
 20
6.5969340401
 30
0.0
 11
5.6422618105
 21
6.5962627545
 31
0.0
  0
LINE
  5
8F
330
1F
100
AcDbEntity
  8
0
  6
Continuous
 62
     7
370
    30
100
AcDbLine
 10
5.6424627049
 20
6.6460822056
 30
0.0
 11
5.6717618014
 21
6.6460822056
 31
0.0
  0
ARC
  5
90
330
1F
100
AcDbEntity
  8
0
  6
Continuous
 62
     7
370
    30
100
AcDbCircle
 10
5.6717618051
 20
6.7270821351
 30
0.0
 40
0.081000000000004
100
AcDbArc
 50
270.0
 51
70.3026369226
  0
LINE
  5
91
330
1F
100
AcDbEntity
  8
0
  6
Continuous
 62
     7
370
    30
100
AcDbLine
 10
5.6990630093
 20
6.8033425489
 30
0.0
 11
5.581080169
 21
6.845580301
 31
0.0
  0
ARC
  5
92
330
1F
100
AcDbEntity
  8
0
  6
Continuous
 62
     7
370
    30
100
AcDbCircle
 10
5.5891694156
 20
6.8681760186
 30
0.0
 40
0.0240000000000032
100
AcDbArc
 50
217.7718781381
 51
250.3026369226
  0
ARC
  5
93
330
1F
100
AcDbEntity
  8
0
  6
Continuous
 62
     7
370
    30
100
AcDbCircle
 10
5.4567618051
 20
6.7655741986
 30
0.0
 40
0.1435079365079394
100
AcDbArc
 50
37.7718781381
 51
142.2281218619
  0
ARC
  5
94
330
1F
100
AcDbEntity
  8
0
  6
Continuous
 62
     7
370
    30
100
AcDbCircle
 10
5.3243541946
 20
6.8681760186
 30
0.0
 40
0.0240000000000023
100
AcDbArc
 50
289.6973630774
 51
322.2281218619
  0
LINE
  5
95
330
1F
100
AcDbEntity
  8
0
  6
Continuous
 62
     7
370
    30
100
AcDbLine
 10
5.3324434412
 20
6.845580301
 30
0.0
 11
5.2144606008
 21
6.8033425489
 31
0.0
  0
ARC
  5
96
330
1F
100
AcDbEntity
  8
0
  6
Continuous
 62
     7
370
    30
100
AcDbCircle
 10
5.2417618051
 20
6.7270821351
 30
0.0
 40
0.0810000000000022
100
AcDbArc
 50
109.6973630774
 51
270.0
  0
LINE
  5
97
330
1F
100
AcDbEntity
  8
0
  6
Continuous
 62
     7
370
    30
100
AcDbLine
 10
5.2417618088
 20
6.6460822056
 30
0.0
 11
5.2710609053
 21
6.6460822056
 31
0.0
  0
LINE
  5
98
330
1F
100
AcDbEntity
  8
0
  6
Continuous
 62
     7
370
    30
100
AcDbLine
 10
5.2712617997
 20
6.5962627545
 30
0.0
 11
5.2677913214
 21
6.5969340401
 31
0.0
  0
LINE
  5
99
330
1F
100
AcDbEntity
  8
0
  6
Continuous
 62
     7
370
    30
100
AcDbLine
 10
5.2677913214
 20
6.5969340401
 30
0.0
 11
5.2223928109
 21
6.6090984329
 31
0.0
  0
LINE
  5
9A
330
1F
100
AcDbEntity
  8
0
  6
Continuous
 62
     7
370
    30
100
AcDbLine
 10
5.6742763174
 20
6.6532026434
 30
0.0
 11
5.6842168475
 21
6.686761349
 31
0.0
  0
ARC
  5
9B
330
1F
100
AcDbEntity
  8
0
  6
Continuous
 62
     7
370
    30
100
AcDbCircle
 10
5.6647618051
 20
6.6210821351
 30
0.0
 40
0.0334999999999997
100
AcDbArc
 50
73.5
 51
273.5
  0
LINE
  5
9C
330
1F
100
AcDbEntity
  8
0
  6
Continuous
 62
     7
370
    30
100
AcDbLine
 10
5.6742929455
 20
6.5881024621
 30
0.0
 11
5.666806927
 21
6.587644574
 31
0.0
  0
ARC
  5
9D
330
1F
100
AcDbEntity
  8
0
  6
Continuous
 62
     7
370
    30
100
AcDbCircle
 10
5.6749034276
 20
6.5781211354
 30
0.0
 40
0.0100000000000012
100
AcDbArc
 50
3.5
 51
93.5
  0
LINE
  5
9E
330
1F
100
AcDbEntity
  8
0
  6
Continuous
 62
     7
370
    30
100
AcDbLine
 10
5.7105224203
 20
6.1595597326
 30
0.0
 11
5.6848847781
 21
6.578731597
 31
0.0
  0
ARC
  5
9F
330
1F
100
AcDbEntity
  8
0
  6
Continuous
 62
     7
370
    30
100
AcDbCircle
 10
5.9600561276
 20
6.1748218429
 30
0.0
 40
0.2499999999999997
100
AcDbArc
 50
183.5
 51
240.4926552692
  0
ARC
  5
A0
330
1F
100
AcDbEntity
  8
0
  6
Continuous
 62
     7
370
    30
100
AcDbCircle
 10
5.7993951494
 20
5.8909394408
 30
0.0
 40
0.0761919191919188
100
AcDbArc
 50
3.5
 51
60.4926552692
  0
ARC
  5
A1
330
1F
100
AcDbEntity
  8
0
  6
Continuous
 62
     7
370
    30
100
AcDbCircle
 10
5.5011444059
 20
5.8726976439
 30
0.0
 40
0.3749999999999999
100
AcDbArc
 50
263.5
 51
3.5
  0
ARC
  5
A2
330
1F
100
AcDbEntity
  8
0
  6
Continuous
 62
     7
370
    30
100
AcDbCircle
 10
5.5011444059
 20
5.8726976439
 30
0.0
 40
0.3250000000000005
100
AcDbArc
 50
263.5
 51
3.5
  0
ARC
  5
A3
330
1F
100
AcDbEntity
  8
0
  6
Continuous
 62
     7
370
    30
100
AcDbCircle
 10
5.7636538578
 20
5.8887534098
 30
0.0
 40
0.0620000000000006
100
AcDbArc
 50
3.5
 51
55.528184023
  0
ARC
  5
A4
330
1F
100
AcDbEntity
  8
0
  6
Continuous
 62
     7
370
    30
100
AcDbCircle
 10
5.9600561276
 20
6.1748218429
 30
0.0
 40
0.285
100
AcDbArc
 50
183.5
 51
235.528184023
  0
LINE
  5
A5
330
1F
100
AcDbEntity
  8
0
  6
Continuous
 62
     7
370
    30
100
AcDbLine
 10
5.6517830622
 20
6.5466254612
 30
0.0
 11
5.6755877039
 21
6.157423044
 31
0.0
  0
ARC
  5
A6
330
1F
100
AcDbEntity
  8
0
  6
Continuous
 62
     7
370
    30
100
AcDbCircle
 10
5.6418017229
 20
6.5460149344
 30
0.0
 40
0.0100000000000004
100
AcDbArc
 50
3.5
 51
72.9932045236
  0
ARC
  5
A7
330
1F
100
AcDbEntity
  8
0
  6
Continuous
 62
     7
370
    30
100
AcDbCircle
 10
5.6647618051
 20
6.6210821351
 30
0.0
 40
0.0685000000000004
100
AcDbArc
 50
73.5
 51
252.9932045236
  0
LINE
  5
A8
330
1F
100
AcDbEntity
  8
0
  6
Continuous
 62
     7
370
    30
100
AcDbLine
 10
5.4643533617
 20
5.5497867818
 30
0.0
 11
5.4586932007
 21
5.5001082024
 31
0.0
  0
LINE
  5
A9
330
1F
100
AcDbEntity
  8
0
  6
Continuous
 62
     7
370
    30
100
AcDbLine
 10
5.2379359063
 20
6.157423044
 30
0.0
 11
5.261740548
 21
6.5466254612
 31
0.0
  0
ARC
  5
AA
330
1F
100
AcDbEntity
  8
0
  6
Continuous
 62
     7
370
    30
100
AcDbCircle
 10
5.4123792043
 20
5.8726976439
 30
0.0
 40
0.3749999999999994
100
AcDbArc
 50
176.5
 51
276.5
  0
ARC
  5
AB
330
1F
100
AcDbEntity
  8
0
  6
Continuous
 62
     7
370
    30
100
AcDbCircle
 10
5.1141284608
 20
5.8909394408
 30
0.0
 40
0.0761919191919191
100
AcDbArc
 50
119.5073447308
 51
176.5
  0
ARC
  5
AC
330
1F
100
AcDbEntity
  8
0
  6
Continuous
 62
     7
370
    30
100
AcDbCircle
 10
4.9534674826
 20
6.1748218429
 30
0.0
 40
0.2499999999999998
100
AcDbArc
 50
299.5073447308
 51
356.5
  0
ARC
  5
AD
330
1F
100
AcDbEntity
  8
0
  6
Continuous
 62
     7
370
    30
100
AcDbCircle
 10
5.2717218873
 20
6.5460149344
 30
0.0
 40
0.0100000000000007
100
AcDbArc
 50
107.0067954764
 51
176.5
  0
LINE
  5
AE
330
1F
100
AcDbEntity
  8
0
  6
Continuous
 62
     7
370
    30
100
AcDbLine
 10
5.2467166832
 20
6.587644574
 30
0.0
 11
5.2392306647
 21
6.5881024621
 31
0.0
  0
LINE
  5
AF
330
1F
100
AcDbEntity
  8
0
  6
Continuous
 62
     7
370
    30
100
AcDbLine
 10
5.4548304095
 20
5.5001082024
 30
0.0
 11
5.4491702485
 21
5.5497867818
 31
0.0
  0
ARC
  5
B0
330
1F
100
AcDbEntity
  8
0
  6
Continuous
 62
     7
370
    30
100
AcDbCircle
 10
5.2487618051
 20
6.6210821351
 30
0.0
 40
0.0334999999999997
100
AcDbArc
 50
266.5
 51
106.5
  0
ARC
  5
B1
330
1F
100
AcDbEntity
  8
0
  6
Continuous
 62
     7
370
    30
100
AcDbCircle
 10
4.9534674826
 20
6.1748218429
 30
0.0
 40
0.2850000000000002
100
AcDbArc
 50
304.471815977
 51
356.5
  0
ARC
  5
B2
330
1F
100
AcDbEntity
  8
0
  6
Continuous
 62
     7
370
    30
100
AcDbCircle
 10
5.1498697523
 20
5.8887534098
 30
0.0
 40
0.0620000000000001
100
AcDbArc
 50
124.471815977
 51
176.5
  0
ARC
  5
B3
330
1F
100
AcDbEntity
  8
0
  6
Continuous
 62
     7
370
    30
100
AcDbCircle
 10
5.2386201826
 20
6.5781211354
 30
0.0
 40
0.0099999999999995
100
AcDbArc
 50
86.5
 51
176.5
  0
ARC
  5
B4
330
1F
100
AcDbEntity
  8
0
  6
Continuous
 62
     7
370
    30
100
AcDbCircle
 10
5.4123792043
 20
5.8726976439
 30
0.0
 40
0.3250000000000004
100
AcDbArc
 50
176.5
 51
276.5
  0
LINE
  5
B5
330
1F
100
AcDbEntity
  8
0
  6
Continuous
 62
     7
370
    30
100
AcDbLine
 10
5.2293067627
 20
6.686761349
 30
0.0
 11
5.2392472928
 21
6.6532026434
 31
0.0
  0
LINE
  5
B6
330
1F
100
AcDbEntity
  8
0
  6
Continuous
 62
     7
370
    30
100
AcDbLine
 10
5.2286388321
 20
6.578731597
 30
0.0
 11
5.2030011899
 21
6.1595597326
 31
0.0
  0
ARC
  5
B7
330
1F
100
AcDbEntity
  8
0
  6
Continuous
 62
     7
370
    30
100
AcDbCircle
 10
5.2487618051
 20
6.6210821351
 30
0.0
 40
0.0685000000000001
100
AcDbArc
 50
287.0067954764
 51
106.5
  0
ARC
  5
B8
330
1F
100
AcDbEntity
  8
0
  6
Continuous
 62
     7
370
    30
100
AcDbCircle
 10
5.6967618051
 20
6.6954931558
 30
0.0
 40
0.0099999999999906
100
AcDbArc
 50
246.7301760415
 51
360.0
  0
ARC
  5
B9
330
1F
100
AcDbEntity
  8
0
  6
Continuous
 62
     7
370
    30
100
AcDbCircle
 10
5.6647618051
 20
6.6210821351
 30
0.0
 40
0.0710000000000118
100
AcDbArc
 50
66.7301760415
 51
232.4184423813
  0
ARC
  5
BA
330
1F
100
AcDbEntity
  8
0
  6
Continuous
 62
     7
370
    30
100
AcDbCircle
 10
5.6092618051
 20
6.5489659095
 30
0.0
 40
0.019999999999998
100
AcDbArc
 50
0.0
 51
52.4184423813
  0
LINE
  5
BB
330
1F
100
AcDbEntity
  8
0
  6
Continuous
 62
     7
370
    30
100
AcDbLine
 10
5.6292618124
 20
6.3840820989
 30
0.0
 11
5.6292618124
 21
6.5489659409
 31
0.0
  0
ARC
  5
BC
330
1F
100
AcDbEntity
  8
0
  6
Continuous
 62
     7
370
    30
100
AcDbCircle
 10
5.2487618051
 20
6.6210821351
 30
0.0
 40
0.0710000000000088
100
AcDbArc
 50
307.5815576188
 51
113.2698239585
  0
ARC
  5
BD
330
1F
100
AcDbEntity
  8
0
  6
Continuous
 62
     7
370
    30
100
AcDbCircle
 10
5.2167618051
 20
6.6954931558
 30
0.0
 40
0.0099999999999927
100
AcDbArc
 50
180.0
 51
293.2698239585
  0
LINE
  5
BE
330
1F
100
AcDbEntity
  8
0
  6
Continuous
 62
     7
370
    30
100
AcDbLine
 10
5.2067618081
 20
6.6970821631
 30
0.0
 11
5.2067618081
 21
6.6954931948
 31
0.0
  0
LINE
  5
BF
330
1F
100
AcDbEntity
  8
0
  6
Continuous
 62
     7
370
    30
100
AcDbLine
 10
5.3831610962
 20
6.7491055488
 30
0.0
 11
5.3658810658
 21
6.7590821402
 31
0.0
  0
LINE
  5
C0
330
1F
100
AcDbEntity
  8
0
  6
Continuous
 62
     7
370
    30
100
AcDbLine
 10
5.3831610962
 20
6.567131571
 30
0.0
 11
5.3831610962
 21
6.5729883434
 31
0.0
  0
ARC
  5
C1
330
1F
100
AcDbEntity
  8
0
  6
Continuous
 62
     7
370
    30
100
AcDbCircle
 10
5.5387618051
 20
6.4750821351
 30
0.0
 40
0.0310000000000006
100
AcDbArc
 50
270.0
 51
84.5504773049
  0
LINE
  5
C2
330
1F
100
AcDbEntity
  8
0
  6
Continuous
 62
     7
370
    30
100
AcDbLine
 10
5.5303316227
 20
6.7590821402
 30
0.0
 11
5.5506919842
 21
6.7473270894
 31
0.0
  0
LINE
  5
C3
330
1F
100
AcDbEntity
  8
0
  6
Continuous
 62
     7
370
    30
100
AcDbLine
 10
5.6447618066
 20
6.7590821402
 30
0.0
 11
5.5303316227
 21
6.7590821402
 31
0.0
  0
ARC
  5
C4
330
1F
100
AcDbEntity
  8
0
  6
Continuous
 62
     7
370
    30
100
AcDbCircle
 10
5.6447618051
 20
6.6970821351
 30
0.0
 40
0.0620000000000065
100
AcDbArc
 50
0.0
 51
90.0
  0
ARC
  5
C5
330
1F
100
AcDbEntity
  8
0
  6
Continuous
 62
     7
370
    30
100
AcDbCircle
 10
5.3042618051
 20
6.5489659095
 30
0.0
 40
0.0199999999999991
100
AcDbArc
 50
127.5815576188
 51
180.0
  0
LINE
  5
C6
330
1F
100
AcDbEntity
  8
0
  6
Continuous
 62
     7
370
    30
100
AcDbLine
 10
5.3831610962
 20
6.6082118431
 30
0.0
 11
5.3628007347
 21
6.619966894
 31
0.0
  0
LINE
  5
C7
330
1F
100
AcDbEntity
  8
0
  6
Continuous
 62
     7
370
    30
100
AcDbLine
 10
5.3628007347
 20
6.5905998732
 30
0.0
 11
5.3831610962
 21
6.6023549241
 31
0.0
  0
LINE
  5
C8
330
1F
100
AcDbEntity
  8
0
  6
Continuous
 62
     7
370
    30
100
AcDbLine
 10
5.3831610962
 20
6.5729883434
 30
0.0
 11
5.3628007347
 21
6.5847433942
 31
0.0
  0
ARC
  5
C9
330
1F
100
AcDbEntity
  8
0
  6
Continuous
 62
     7
370
    30
100
AcDbCircle
 10
5.2687618051
 20
6.6970821351
 30
0.0
 40
0.0620000000000029
100
AcDbArc
 50
90.0
 51
180.0
  0
LINE
  5
CA
330
1F
100
AcDbEntity
  8
0
  6
Continuous
 62
     7
370
    30
100
AcDbLine
 10
5.7067618021
 20
6.6954931948
 30
0.0
 11
5.7067618021
 21
6.6970821631
 31
0.0
  0
LINE
  5
CB
330
1F
100
AcDbEntity
  8
0
  6
Continuous
 62
     7
370
    30
100
AcDbLine
 10
5.3831610962
 20
6.7138820491
 30
0.0
 11
5.3628007347
 21
6.7256370999
 31
0.0
  0
LINE
  5
CC
330
1F
100
AcDbEntity
  8
0
  6
Continuous
 62
     7
370
    30
100
AcDbLine
 10
5.3628007347
 20
6.6962702259
 30
0.0
 11
5.3831610962
 21
6.7080252767
 31
0.0
  0
LINE
  5
CD
330
1F
100
AcDbEntity
  8
0
  6
Continuous
 62
     7
370
    30
100
AcDbLine
 10
5.3831610962
 20
6.678658696
 30
0.0
 11
5.3628007347
 21
6.6904137468
 31
0.0
  0
LINE
  5
CE
330
1F
100
AcDbEntity
  8
0
  6
Continuous
 62
     7
370
    30
100
AcDbLine
 10
5.3628007347
 20
6.6610467261
 30
0.0
 11
5.3831610962
 21
6.672801777
 31
0.0
  0
LINE
  5
CF
330
1F
100
AcDbEntity
  8
0
  6
Continuous
 62
     7
370
    30
100
AcDbLine
 10
5.2842617978
 20
6.5489659409
 30
0.0
 11
5.2842617978
 21
6.3840820989
 31
0.0
  0
LINE
  5
D0
330
1F
100
AcDbEntity
  8
0
  6
Continuous
 62
     7
370
    30
100
AcDbLine
 10
5.3628007347
 20
6.625823373
 30
0.0
 11
5.3831610962
 21
6.6375784239
 31
0.0
  0
ARC
  5
D1
330
1F
100
AcDbEntity
  8
0
  6
Continuous
 62
     7
370
    30
100
AcDbCircle
 10
5.3747618051
 20
6.4750821351
 30
0.0
 40
0.0309999999999998
100
AcDbArc
 50
104.7376174516
 51
270.0
  0
LINE
  5
D2
330
1F
100
AcDbEntity
  8
0
  6
Continuous
 62
     7
370
    30
100
AcDbLine
 10
5.3831610962
 20
6.6023549241
 30
0.0
 11
5.3831610962
 21
6.6082118431
 31
0.0
  0
LINE
  5
D3
330
1F
100
AcDbEntity
  8
0
  6
Continuous
 62
     7
370
    30
100
AcDbLine
 10
5.3628007347
 20
6.5847433942
 30
0.0
 11
5.3628007347
 21
6.5905998732
 31
0.0
  0
LINE
  5
D4
330
1F
100
AcDbEntity
  8
0
  6
Continuous
 62
     7
370
    30
100
AcDbLine
 10
5.5303316227
 20
6.5888218538
 30
0.0
 11
5.5303316227
 21
6.5829650814
 31
0.0
  0
LINE
  5
D5
330
1F
100
AcDbEntity
  8
0
  6
Continuous
 62
     7
370
    30
100
AcDbLine
 10
5.3628007347
 20
6.731493579
 30
0.0
 11
5.3831610962
 21
6.7432486298
 31
0.0
  0
LINE
  5
D6
330
1F
100
AcDbEntity
  8
0
  6
Continuous
 62
     7
370
    30
100
AcDbLine
 10
5.5506919842
 20
6.6416567368
 30
0.0
 11
5.5506919842
 21
6.6358002577
 31
0.0
  0
LINE
  5
D7
330
1F
100
AcDbEntity
  8
0
  6
Continuous
 62
     7
370
    30
100
AcDbLine
 10
5.3831610962
 20
6.5319082179
 30
0.0
 11
5.3831610962
 21
6.5377649903
 31
0.0
  0
LINE
  5
D8
330
1F
100
AcDbEntity
  8
0
  6
Continuous
 62
     7
370
    30
100
AcDbLine
 10
5.3628007347
 20
6.5142965414
 30
0.0
 11
5.3628007347
 21
6.5201530204
 31
0.0
  0
LINE
  5
D9
330
1F
100
AcDbEntity
  8
0
  6
Continuous
 62
     7
370
    30
100
AcDbLine
 10
5.5303308115
 20
6.5125094287
 30
0.0
 11
5.5417058396
 21
6.5059420645
 31
0.0
  0
LINE
  5
DA
330
1F
100
AcDbEntity
  8
0
  6
Continuous
 62
     7
370
    30
100
AcDbLine
 10
5.3831610962
 20
6.6434351962
 30
0.0
 11
5.3628007347
 21
6.6551902471
 31
0.0
  0
LINE
  5
DB
330
1F
100
AcDbEntity
  8
0
  6
Continuous
 62
     7
370
    30
100
AcDbLine
 10
5.5303316227
 20
6.5477415817
 30
0.0
 11
5.5506919842
 21
6.5359865308
 31
0.0
  0
LINE
  5
DC
330
1F
100
AcDbEntity
  8
0
  6
Continuous
 62
     7
370
    30
100
AcDbLine
 10
5.5506919842
 20
6.5653534049
 30
0.0
 11
5.5303316227
 21
6.553598354
 31
0.0
  0
LINE
  5
DD
330
1F
100
AcDbEntity
  8
0
  6
Continuous
 62
     7
370
    30
100
AcDbLine
 10
5.5303316227
 20
6.5829650814
 30
0.0
 11
5.5506919842
 21
6.5712100306
 31
0.0
  0
LINE
  5
DE
330
1F
100
AcDbEntity
  8
0
  6
Continuous
 62
     7
370
    30
100
AcDbLine
 10
5.5506919842
 20
6.6005769046
 30
0.0
 11
5.5303316227
 21
6.5888218538
 31
0.0
  0
LINE
  5
DF
330
1F
100
AcDbEntity
  8
0
  6
Continuous
 62
     7
370
    30
100
AcDbLine
 10
5.3628007347
 20
6.5553765201
 30
0.0
 11
5.3831610962
 21
6.567131571
 31
0.0
  0
LINE
  5
E0
330
1F
100
AcDbEntity
  8
0
  6
Continuous
 62
     7
370
    30
100
AcDbLine
 10
5.3628007347
 20
6.5495200411
 30
0.0
 11
5.3628007347
 21
6.5553765201
 31
0.0
  0
LINE
  5
E1
330
1F
100
AcDbEntity
  8
0
  6
Continuous
 62
     7
370
    30
100
AcDbLine
 10
5.3628007347
 20
6.7256370999
 30
0.0
 11
5.3628007347
 21
6.731493579
 31
0.0
  0
LINE
  5
E2
330
1F
100
AcDbEntity
  8
0
  6
Continuous
 62
     7
370
    30
100
AcDbLine
 10
5.3831610962
 20
6.7080252767
 30
0.0
 11
5.3831610962
 21
6.7138820491
 31
0.0
  0
LINE
  5
E3
330
1F
100
AcDbEntity
  8
0
  6
Continuous
 62
     7
370
    30
100
AcDbLine
 10
5.3628007347
 20
6.6904137468
 30
0.0
 11
5.3628007347
 21
6.6962702259
 31
0.0
  0
LINE
  5
E4
330
1F
100
AcDbEntity
  8
0
  6
Continuous
 62
     7
370
    30
100
AcDbLine
 10
5.3831610962
 20
6.672801777
 30
0.0
 11
5.3831610962
 21
6.678658696
 31
0.0
  0
LINE
  5
E5
330
1F
100
AcDbEntity
  8
0
  6
Continuous
 62
     7
370
    30
100
AcDbLine
 10
5.5506919842
 20
6.5301300518
 30
0.0
 11
5.5303308115
 21
6.5183745609
 31
0.0
  0
LINE
  5
E6
330
1F
100
AcDbEntity
  8
0
  6
Continuous
 62
     7
370
    30
100
AcDbLine
 10
5.3831610962
 20
6.6375784239
 30
0.0
 11
5.3831610962
 21
6.6434351962
 31
0.0
  0
LINE
  5
E7
330
1F
100
AcDbEntity
  8
0
  6
Continuous
 62
     7
370
    30
100
AcDbLine
 10
5.3628007347
 20
6.619966894
 30
0.0
 11
5.3628007347
 21
6.625823373
 31
0.0
  0
LINE
  5
E8
330
1F
100
AcDbEntity
  8
0
  6
Continuous
 62
     7
370
    30
100
AcDbLine
 10
5.5303316227
 20
6.6592687066
 30
0.0
 11
5.5303316227
 21
6.6534119343
 31
0.0
  0
LINE
  5
E9
330
1F
100
AcDbEntity
  8
0
  6
Continuous
 62
     7
370
    30
100
AcDbLine
 10
5.5506919842
 20
6.6768802365
 30
0.0
 11
5.5506919842
 21
6.6710237575
 31
0.0
  0
LINE
  5
EA
330
1F
100
AcDbEntity
  8
0
  6
Continuous
 62
     7
370
    30
100
AcDbLine
 10
5.3831610962
 20
6.7432486298
 30
0.0
 11
5.3831610962
 21
6.7491055488
 31
0.0
  0
LINE
  5
EB
330
1F
100
AcDbEntity
  8
0
  6
Continuous
 62
     7
370
    30
100
AcDbLine
 10
5.3831610962
 20
6.5377649903
 30
0.0
 11
5.3628007347
 21
6.5495200411
 31
0.0
  0
LINE
  5
EC
330
1F
100
AcDbEntity
  8
0
  6
Continuous
 62
     7
370
    30
100
AcDbLine
 10
5.3628007347
 20
6.5201530204
 30
0.0
 11
5.3831610962
 21
6.5319082179
 31
0.0
  0
LINE
  5
ED
330
1F
100
AcDbEntity
  8
0
  6
Continuous
 62
     7
370
    30
100
AcDbLine
 10
5.3674019816
 20
6.5116399987
 30
0.0
 11
5.3628007347
 21
6.5142965414
 31
0.0
  0
ARC
  5
EE
330
1F
100
AcDbEntity
  8
0
  6
Continuous
 62
     7
370
    30
100
AcDbCircle
 10
5.3577288702
 20
6.5091041573
 30
0.0
 40
0.0100000000000089
100
AcDbArc
 50
336.1596651702
 51
14.6901250941
  0
LINE
  5
EF
330
1F
100
AcDbEntity
  8
0
  6
Continuous
 62
     7
370
    30
100
AcDbLine
 10
5.3628007347
 20
6.6551902471
 30
0.0
 11
5.3628007347
 21
6.6610467261
 31
0.0
  0
LINE
  5
F0
330
1F
100
AcDbEntity
  8
0
  6
Continuous
 62
     7
370
    30
100
AcDbLine
 10
5.5303308115
 20
6.5183745609
 30
0.0
 11
5.5303308115
 21
6.5125094287
 31
0.0
  0
LINE
  5
F1
330
1F
100
AcDbEntity
  8
0
  6
Continuous
 62
     7
370
    30
100
AcDbLine
 10
5.5506919842
 20
6.5359865308
 30
0.0
 11
5.5506919842
 21
6.5301300518
 31
0.0
  0
LINE
  5
F2
330
1F
100
AcDbEntity
  8
0
  6
Continuous
 62
     7
370
    30
100
AcDbLine
 10
5.5303316227
 20
6.553598354
 30
0.0
 11
5.5303316227
 21
6.5477415817
 31
0.0
  0
LINE
  5
F3
330
1F
100
AcDbEntity
  8
0
  6
Continuous
 62
     7
370
    30
100
AcDbLine
 10
5.5506919842
 20
6.5712100306
 30
0.0
 11
5.5506919842
 21
6.5653534049
 31
0.0
  0
LINE
  5
F4
330
1F
100
AcDbEntity
  8
0
  6
Continuous
 62
     7
370
    30
100
AcDbLine
 10
5.5303316227
 20
6.6181884345
 30
0.0
 11
5.5506919842
 21
6.6064333837
 31
0.0
  0
LINE
  5
F5
330
1F
100
AcDbEntity
  8
0
  6
Continuous
 62
     7
370
    30
100
AcDbLine
 10
5.5506919842
 20
6.6064333837
 30
0.0
 11
5.5506919842
 21
6.6005769046
 31
0.0
  0
LINE
  5
F6
330
1F
100
AcDbEntity
  8
0
  6
Continuous
 62
     7
370
    30
100
AcDbLine
 10
5.5506919842
 20
6.6358002577
 30
0.0
 11
5.5303316227
 21
6.6240452069
 31
0.0
  0
LINE
  5
F7
330
1F
100
AcDbEntity
  8
0
  6
Continuous
 62
     7
370
    30
100
AcDbLine
 10
5.5303316227
 20
6.6534119343
 30
0.0
 11
5.5506919842
 21
6.6416567368
 31
0.0
  0
LINE
  5
F8
330
1F
100
AcDbEntity
  8
0
  6
Continuous
 62
     7
370
    30
100
AcDbLine
 10
5.5506919842
 20
6.6710237575
 30
0.0
 11
5.5303316227
 21
6.6592687066
 31
0.0
  0
LINE
  5
F9
330
1F
100
AcDbEntity
  8
0
  6
Continuous
 62
     7
370
    30
100
AcDbLine
 10
5.5303316227
 20
6.6944920597
 30
0.0
 11
5.5303316227
 21
6.6886352874
 31
0.0
  0
LINE
  5
FA
330
1F
100
AcDbEntity
  8
0
  6
Continuous
 62
     7
370
    30
100
AcDbLine
 10
5.5506919842
 20
6.7121035896
 30
0.0
 11
5.5506919842
 21
6.7062471106
 31
0.0
  0
LINE
  5
FB
330
1F
100
AcDbEntity
  8
0
  6
Continuous
 62
     7
370
    30
100
AcDbLine
 10
5.5303316227
 20
6.7297155595
 30
0.0
 11
5.5303316227
 21
6.7238586405
 31
0.0
  0
LINE
  5
FC
330
1F
100
AcDbEntity
  8
0
  6
Continuous
 62
     7
370
    30
100
AcDbLine
 10
5.5506919842
 20
6.7473270894
 30
0.0
 11
5.5506919842
 21
6.7414706104
 31
0.0
  0
LINE
  5
FD
330
1F
100
AcDbEntity
  8
0
  6
Continuous
 62
     7
370
    30
100
AcDbLine
 10
5.6292618124
 20
6.3840820989
 30
0.0
 11
5.2842617978
 21
6.3840820989
 31
0.0
  0
LINE
  5
FE
330
1F
100
AcDbEntity
  8
0
  6
Continuous
 62
     7
370
    30
100
AcDbLine
 10
5.3658810658
 20
6.7590821402
 30
0.0
 11
5.2687618036
 21
6.7590821402
 31
0.0
  0
LINE
  5
FF
330
1F
100
AcDbEntity
  8
0
  6
Continuous
 62
     7
370
    30
100
AcDbLine
 10
5.5303316227
 20
6.6886352874
 30
0.0
 11
5.5506919842
 21
6.6768802365
 31
0.0
  0
LINE
  5
100
330
1F
100
AcDbEntity
  8
0
  6
Continuous
 62
     7
370
    30
100
AcDbLine
 10
5.5303316227
 20
6.6240452069
 30
0.0
 11
5.5303316227
 21
6.6181884345
 31
0.0
  0
LINE
  5
101
330
1F
100
AcDbEntity
  8
0
  6
Continuous
 62
     7
370
    30
100
AcDbLine
 10
5.5303316227
 20
6.7238586405
 30
0.0
 11
5.5506919842
 21
6.7121035896
 31
0.0
  0
LINE
  5
102
330
1F
100
AcDbEntity
  8
0
  6
Continuous
 62
     7
370
    30
100
AcDbLine
 10
5.5506919842
 20
6.7414706104
 30
0.0
 11
5.5303316227
 21
6.7297155595
 31
0.0
  0
LINE
  5
103
330
1F
100
AcDbEntity
  8
0
  6
Continuous
 62
     7
370
    30
100
AcDbLine
 10
5.5387618062
 20
6.4440821525
 30
0.0
 11
5.374761804
 21
6.4440821525
 31
0.0
  0
LINE
  5
104
330
1F
100
AcDbEntity
  8
0
  6
Continuous
 62
     7
370
    30
100
AcDbLine
 10
5.5506919842
 20
6.7062471106
 30
0.0
 11
5.5303316227
 21
6.6944920597
 31
0.0
  0
LINE
  5
105
330
1F
100
AcDbEntity
  8
0
  6
Continuous
 62
     7
370
    30
100
AcDbLine
 10
5.3831610962
 20
6.5720821005
 30
0.0
 11
5.548761809
 21
6.5720821005
 31
0.0
  0
LINE
  5
106
330
1F
100
AcDbEntity
  8
0
  6
Continuous
 62
     7
370
    30
100
AcDbLine
 10
4.4197618379
 20
7.0860821094
 30
0.0
 11
4.4197618379
 21
6.5194243888
 31
0.0
  0
LINE
  5
107
330
1F
100
AcDbEntity
  8
0
  6
Continuous
 62
     7
370
    30
100
AcDbLine
 10
4.3567618257
 20
7.0760821982
 30
0.0
 11
4.3567618257
 21
7.0860821094
 31
0.0
  0
LINE
  5
108
330
1F
100
AcDbEntity
  8
0
  6
Continuous
 62
     7
370
    30
100
AcDbLine
 10
4.4197618379
 20
7.0860821094
 30
0.0
 11
4.3567618257
 21
7.0860821094
 31
0.0
  0
LINE
  5
109
330
1F
100
AcDbEntity
  8
0
  6
Continuous
 62
     7
370
    30
100
AcDbLine
 10
6.4937617723
 20
7.0860821094
 30
0.0
 11
6.5567617845
 21
7.0860821094
 31
0.0
  0
LINE
  5
10A
330
1F
100
AcDbEntity
  8
0
  6
Continuous
 62
     7
370
    30
100
AcDbLine
 10
6.5567617845
 20
7.0760821982
 30
0.0
 11
6.5567617845
 21
7.0860821094
 31
0.0
  0
LINE
  5
10B
330
1F
100
AcDbEntity
  8
0
  6
Continuous
 62
     7
370
    30
100
AcDbLine
 10
6.4937617723
 20
7.0860821094
 30
0.0
 11
6.4937617723
 21
6.5194243888
 31
0.0
  0
ELLIPSE
  5
10C
330
1F
100
AcDbEntity
  8
0
  6
Continuous
 62
     7
370
    30
100
AcDbEllipse
 10
4.4269618051
 20
6.7730821351
 30
0.0
 11
0.0
 21
0.09450000000000092
 31
0.0
210
0.0
220
0.0
230
1.0
 40
0.0538748024
 41
0.4657290497383807
 42
2.675863603851562
  0
ARC
  5
10D
330
1F
100
AcDbEntity
  8
0
  6
Continuous
 62
     7
370
    30
100
AcDbCircle
 10
4.4265950003
 20
6.6820876479
 30
0.0
 40
0.0068343250981697
100
AcDbArc
 50
106.3118062981
 51
178.9431094193
  0
ARC
  5
10E
330
1F
100
AcDbEntity
  8
0
  6
Continuous
 62
     7
370
    30
100
AcDbCircle
 10
4.4265950003
 20
6.8640765891
 30
0.0
 40
0.006834325098168
100
AcDbArc
 50
181.0568905807
 51
253.6881937019
  0
ELLIPSE
  5
10F
330
1F
100
AcDbEntity
  8
0
  6
Continuous
 62
     7
370
    30
100
AcDbEllipse
 10
6.4865618051
 20
6.7730821351
 30
0.0
 11
0.0
 21
0.09450000000000003
 31
0.0
210
0.0
220
0.0
230
1.0
 40
0.0538748024
 41
3.618357460701774
 42
5.806420500069404
  0
ARC
  5
110
330
1F
100
AcDbEntity
  8
0
  6
Continuous
 62
     7
370
    30
100
AcDbCircle
 10
6.4869507754
 20
6.8635718904
 30
0.0
 40
0.0068122541127569
100
AcDbArc
 50
286.6110403598
 51
358.8991771916
  0
ARC
  5
111
330
1F
100
AcDbEntity
  8
0
  6
Continuous
 62
     7
370
    30
100
AcDbCircle
 10
6.486951
 20
6.6825925174
 30
0.0
 40
0.0068120262971061
100
AcDbArc
 50
1.0994232554
 51
73.3903591932
  0
SPLINE
  5
112
330
1F
100
AcDbEntity
  8
0
  6
Continuous
 62
     7
370
    30
100
AcDbSpline
210
0.0
220
0.0
230
1.0
 70
     8
 71
     3
 72
    12
 73
     8
 74
     0
 42
0.000000001
 43
0.00000001
 40
0.0
 40
0.0
 40
0.0
 40
0.0
 40
0.1991112459042102
 40
0.3953116293087661
 40
0.5953685382018412
 40
0.7998651325775026
 40
1.0
 40
1.0
 40
1.0
 40
1.0
 10
4.448475466240351
 20
6.857517363114013
 30
0.0
 10
4.446092932533344
 20
6.85822429539646
 30
0.0
 10
4.441362696040056
 20
6.859627825122345
 30
0.0
 10
4.434719843015877
 20
6.860491216468606
 30
0.0
 10
4.429337055376442
 20
6.860512231651263
 30
0.0
 10
4.425590845980653
 20
6.859662270846499
 30
0.0
 10
4.424978402166327
 20
6.858227175820067
 30
0.0
 10
4.42467548117981
 20
6.857517363114013
 30
0.0
  0
ELLIPSE
  5
113
330
1F
100
AcDbEntity
  8
0
  6
Continuous
 62
     7
370
    30
100
AcDbEllipse
 10
4.3861734574
 20
6.7730821351
 30
0.0
 11
0.1387343504688001
 21
0.0
 31
0.0
210
0.0
220
0.0
230
1.0
 40
0.6811579085
 41
5.178118030121319
 42
7.388252584237895
  0
SPLINE
  5
114
330
1F
100
AcDbEntity
  8
0
  6
Continuous
 62
     7
370
    30
100
AcDbSpline
210
0.0
220
0.0
230
1.0
 70
     8
 71
     3
 72
    12
 73
     8
 74
     0
 42
0.000000001
 43
0.00000001
 40
0.0
 40
0.0
 40
0.0
 40
0.0
 40
0.199113800991103
 40
0.3953070818678426
 40
0.5953667225085166
 40
0.7998632938553479
 40
0.9999999999999999
 40
0.9999999999999999
 40
0.9999999999999999
 40
0.9999999999999999
 10
4.42467548117981
 20
6.688646873920314
 30
0.0
 10
4.424975333740401
 20
6.6879399448572
 30
0.0
 10
4.425570640746381
 20
6.686536455678466
 30
0.0
 10
4.4291972136934
 20
6.685672999908371
 30
0.0
 10
4.434504864262607
 20
6.685652006256502
 30
0.0
 10
4.441238615583753
 20
6.686501973229009
 30
0.0
 10
4.446080573152959
 20
6.687937061312248
 30
0.0
 10
4.448475466240351
 20
6.688646873920314
 30
0.0
  0
SPLINE
  5
115
330
1F
100
AcDbEntity
  8
0
  6
Continuous
 62
     7
370
    30
100
AcDbSpline
210
0.0
220
0.0
230
1.0
 70
     8
 71
     3
 72
    12
 73
     8
 74
     0
 42
0.000000001
 43
0.00000001
 40
0.0
 40
0.0
 40
0.0
 40
0.0
 40
0.2018470788665741
 40
0.3970177002428529
 40
0.5962527236166342
 40
0.800321704343034
 40
1.0
 40
1.0
 40
1.0
 40
1.0
 10
6.465098156709613
 20
6.689120308451158
 30
0.0
 10
6.46751101478467
 20
6.688385413353948
 30
0.0
 10
6.472256921286516
 20
6.686939931145077
 30
0.0
 10
6.478903855283394
 20
6.68605763280235
 30
0.0
 10
6.484261452345437
 20
6.686041907913935
 30
0.0
 10
6.487989225831159
 20
6.68692142278243
 30
0.0
 10
6.488597423361438
 20
6.688392679787374
 30
0.0
 10
6.48889821510264
 20
6.689120308451158
 30
0.0
  0
ELLIPSE
  5
116
330
1F
100
AcDbEntity
  8
0
  6
Continuous
 62
     7
370
    30
100
AcDbEllipse
 10
6.5287643663
 20
6.7730821351
 30
0.0
 11
0.138734350468801
 21
0.0
 31
0.0
210
0.0
220
0.0
230
1.0
 40
0.6811579085
 41
2.047561133907994
 42
4.235624173271615
  0
SPLINE
  5
117
330
1F
100
AcDbEntity
  8
0
  6
Continuous
 62
     7
370
    30
100
AcDbSpline
210
0.0
220
0.0
230
1.0
 70
     8
 71
     3
 72
    12
 73
     8
 74
     0
 42
0.000000001
 43
0.00000001
 40
0.0
 40
0.0
 40
0.0
 40
0.0
 40
0.2018529335911295
 40
0.3970177743321224
 40
0.5962516888238337
 40
0.800319673562511
 40
0.9999999999999999
 40
0.9999999999999999
 40
0.9999999999999999
 40
0.9999999999999999
 10
6.48889821510264
 20
6.857043928583169
 30
0.0
 10
6.488592267465029
 20
6.857778818149765
 30
0.0
 10
6.487990509303848
 20
6.859224247824324
 30
0.0
 10
6.484336239419214
 20
6.860106636238409
 30
0.0
 10
6.479033532866606
 20
6.860122264901674
 30
0.0
 10
6.472309260130111
 20
6.859243036803949
 30
0.0
 10
6.467484380026216
 20
6.857771634595156
 30
0.0
 10
6.465098156709613
 20
6.857043928583169
 30
0.0
  0
LWPOLYLINE
  5
118
330
1F
100
AcDbEntity
  8
0
  6
Continuous
 62
     7
370
    30
100
AcDbPolyline
 90
        9
 70
   128
 43
0.0
 10
4.4507618265
 20
6.6822137082
 10
4.4503873175
 20
6.6832674961
 10
4.4500219017
 20
6.6842957642
 10
4.4496744524
 20
6.6852734329
 10
4.4493533294
 20
6.6861767425
 10
4.4490665261
 20
6.6869839865
 10
4.4488207889
 20
6.6876753651
 10
4.4486221312
 20
6.6882341587
 10
4.4484754662
 20
6.6886468739
  0
SPLINE
  5
119
330
1F
100
AcDbEntity
  8
0
  6
Continuous
 62
     7
370
    30
100
AcDbSpline
210
0.0
220
0.0
230
1.0
 70
     8
 71
     3
 72
    12
 73
     8
 74
     0
 42
0.000000001
 43
0.00000001
 40
0.0
 40
0.0
 40
0.0
 40
0.0
 40
0.2013215306592828
 40
0.4052686330644834
 40
0.6039944031637963
 40
0.7997000355705464
 40
1.0
 40
1.0
 40
1.0
 40
1.0
 10
4.45076182649479
 20
6.682213708236793
 30
0.0
 10
4.447544574855193
 20
6.681450447427939
 30
0.0
 10
4.441068113197398
 20
6.6799139716041
 30
0.0
 10
4.432118015589197
 20
6.678990231507535
 30
0.0
 10
4.425177536449047
 20
6.679013008282275
 30
0.0
 10
4.420608211385261
 20
6.679950758500565
 30
0.0
 10
4.420046136096911
 20
6.681453579904751
 30
0.0
 10
4.419761837942636
 20
6.682213708236793
 30
0.0
  0
LINE
  5
11A
330
1F
100
AcDbEntity
  8
0
  6
Continuous
 62
     7
370
    30
100
AcDbLine
 10
4.4197618379
 20
6.5860821521
 30
0.0
 11
4.4507618265
 21
6.5860821521
 31
0.0
  0
LINE
  5
11B
330
1F
100
AcDbEntity
  8
0
  6
Continuous
 62
     7
370
    30
100
AcDbLine
 10
4.4507618265
 20
6.5860821521
 30
0.0
 11
4.4507618265
 21
6.6822137082
 31
0.0
  0
SPLINE
  5
11C
330
1F
100
AcDbEntity
  8
0
  6
Continuous
 62
     7
370
    30
100
AcDbSpline
210
0.0
220
0.0
230
1.0
 70
     8
 71
     3
 72
    12
 73
     8
 74
     0
 42
0.000000001
 43
0.00000001
 40
0.0
 40
0.0
 40
0.0
 40
0.0
 40
0.2013239802856666
 40
0.4052740568563725
 40
0.6039937995607427
 40
0.7997034237083428
 40
1.0
 40
1.0
 40
1.0
 40
1.0
 10
4.419761837942636
 20
6.863950528797534
 30
0.0
 10
4.420049580149414
 20
6.864713787738717
 30
0.0
 10
4.420628817909885
 20
6.866250261670368
 30
0.0
 10
4.425355585576716
 20
6.867174016178988
 30
0.0
 10
4.432402617049963
 20
6.867151146807346
 30
0.0
 10
4.441232856842418
 20
6.86621374962689
 30
0.0
 10
4.447561069980757
 20
6.864710738880736
 30
0.0
 10
4.45076182649479
 20
6.863950528797534
 30
0.0
  0
LWPOLYLINE
  5
11D
330
1F
100
AcDbEntity
  8
0
  6
Continuous
 62
     7
370
    30
100
AcDbPolyline
 90
        9
 70
   128
 43
0.0
 10
4.4507618265
 20
6.8639505288
 10
4.4503873175
 20
6.862896741
 10
4.4500219017
 20
6.8618684728
 10
4.4496744524
 20
6.8608909508
 10
4.4493533294
 20
6.8599874946
 10
4.4490665261
 20
6.8591802506
 10
4.4488207889
 20
6.8584888719
 10
4.4486221312
 20
6.8579300783
 10
4.4484754662
 20
6.8575173631
  0
LINE
  5
11E
330
1F
100
AcDbEntity
  8
0
  6
Continuous
 62
     7
370
    30
100
AcDbLine
 10
4.4507618265
 20
7.0860821094
 30
0.0
 11
4.4197618379
 21
7.0860821094
 31
0.0
  0
LINE
  5
11F
330
1F
100
AcDbEntity
  8
0
  6
Continuous
 62
     7
370
    30
100
AcDbLine
 10
4.4507618265
 20
6.8639505288
 30
0.0
 11
4.4507618265
 21
7.0860821094
 31
0.0
  0
SPLINE
  5
120
330
1F
100
AcDbEntity
  8
0
  6
Continuous
 62
     7
370
    30
100
AcDbSpline
210
0.0
220
0.0
230
1.0
 70
     8
 71
     3
 72
    12
 73
     8
 74
     0
 42
0.000000001
 43
0.00000001
 40
0.0
 40
0.0
 40
0.0
 40
0.0
 40
0.2008028856751939
 40
0.4043601019156499
 40
0.602325044727466
 40
0.7970295488221737
 40
1.0
 40
1.0
 40
1.0
 40
1.0
 10
6.493761772251747
 20
6.682723222350843
 30
0.0
 10
6.493476306537822
 20
6.681940748604058
 30
0.0
 10
6.492901459494225
 20
6.68036506824004
 30
0.0
 10
6.488199160339473
 20
6.679410017085131
 30
0.0
 10
6.481187514430895
 20
6.679427043350397
 30
0.0
 10
6.472354687264354
 20
6.680384634395635
 30
0.0
 10
6.466003423348769
 20
6.681932965325166
 30
0.0
 10
6.462761783699594
 20
6.682723222350843
 30
0.0
  0
LWPOLYLINE
  5
121
330
1F
100
AcDbEntity
  8
0
  6
Continuous
 62
     7
370
    30
100
AcDbPolyline
 90
        9
 70
   128
 43
0.0
 10
6.4627617837
 20
6.6827232224
 10
6.4631432593
 20
6.6837676236
 10
6.463515495
 20
6.6847869452
 10
6.4638696909
 20
6.685756694
 10
6.4641972671
 20
6.6866536969
 10
6.4644904504
 20
6.6874563943
 10
6.4647422008
 20
6.6881457197
 10
6.4649463585
 20
6.6887048066
 10
6.4650981567
 20
6.6891203085
  0
LINE
  5
122
330
1F
100
AcDbEntity
  8
0
  6
Continuous
 62
     7
370
    30
100
AcDbLine
 10
6.4627617837
 20
6.5860821521
 30
0.0
 11
6.4937617723
 21
6.5860821521
 31
0.0
  0
LINE
  5
123
330
1F
100
AcDbEntity
  8
0
  6
Continuous
 62
     7
370
    30
100
AcDbLine
 10
6.4627617837
 20
6.6827232224
 30
0.0
 11
6.4627617837
 21
6.5860821521
 31
0.0
  0
LWPOLYLINE
  5
124
330
1F
100
AcDbEntity
  8
0
  6
Continuous
 62
     7
370
    30
100
AcDbPolyline
 90
        9
 70
   128
 43
0.0
 10
6.4627617837
 20
6.8634410147
 10
6.4631432593
 20
6.8623966134
 10
6.463515495
 20
6.8613772919
 10
6.4638696909
 20
6.8604075431
 10
6.4641972671
 20
6.8595105401
 10
6.4644904504
 20
6.8587078427
 10
6.4647422008
 20
6.858018664
 10
6.4649463585
 20
6.8574595771
 10
6.4650981567
 20
6.8570439286
  0
SPLINE
  5
125
330
1F
100
AcDbEntity
  8
0
  6
Continuous
 62
     7
370
    30
100
AcDbSpline
210
0.0
220
0.0
230
1.0
 70
     8
 71
     3
 72
    12
 73
     8
 74
     0
 42
0.000000001
 43
0.00000001
 40
0.0
 40
0.0
 40
0.0
 40
0.0
 40
0.2007996989780504
 40
0.4043581617470163
 40
0.6023240807648091
 40
0.7970242015045292
 40
1.0
 40
1.0
 40
1.0
 40
1.0
 10
6.462761783699594
 20
6.863441014683485
 30
0.0
 10
6.465967787196846
 20
6.864223489022809
 30
0.0
 10
6.472423841101813
 20
6.865799188025716
 30
0.0
 10
6.481359287701426
 20
6.866754228435884
 30
0.0
 10
6.488293606664524
 20
6.866737148554448
 30
0.0
 10
6.492900221743045
 20
6.865779790202435
 30
0.0
 10
6.493470631983126
 20
6.864231347607619
 30
0.0
 10
6.493761772251747
 20
6.863441014683485
 30
0.0
  0
LINE
  5
126
330
1F
100
AcDbEntity
  8
0
  6
Continuous
 62
     7
370
    30
100
AcDbLine
 10
6.4937617723
 20
7.0860821094
 30
0.0
 11
6.4627617837
 21
7.0860821094
 31
0.0
  0
LINE
  5
127
330
1F
100
AcDbEntity
  8
0
  6
Continuous
 62
     7
370
    30
100
AcDbLine
 10
6.4627617837
 20
7.0860821094
 30
0.0
 11
6.4627617837
 21
6.8634410147
 31
0.0
  0
ELLIPSE
  5
128
330
1F
100
AcDbEntity
  8
0
  6
Continuous
 62
     7
370
    30
100
AcDbEllipse
 10
4.3861734574
 20
6.7730821351
 30
0.0
 11
-0.143825519293344
 21
0.0
 31
0.0
210
0.0
220
0.0
230
1.0
 40
0.7071067812
 41
2.036525376531513
 42
4.24665993064813
  0
ELLIPSE
  5
129
330
1F
100
AcDbEntity
  8
0
  6
Continuous
 62
     7
370
    30
100
AcDbEllipse
 10
6.5287643663
 20
6.7730821351
 30
0.0
 11
0.143825519293344
 21
0.0
 31
0.0
210
0.0
220
0.0
230
1.0
 40
0.7071067812
 41
2.047561133907983
 42
4.235624173271631
  0
LINE
  5
12A
330
1F
100
AcDbEntity
  8
0
  6
Continuous
 62
     7
370
    30
100
AcDbLine
 10
4.4507618265
 20
7.0860821094
 30
0.0
 11
4.4877618057
 21
7.0860821094
 31
0.0
  0
LINE
  5
12B
330
1F
100
AcDbEntity
  8
0
  6
Continuous
 62
     7
370
    30
100
AcDbLine
 10
4.4877618057
 20
7.0860821094
 30
0.0
 11
6.4257618045
 21
7.0860821094
 31
0.0
  0
LINE
  5
12C
330
1F
100
AcDbEntity
  8
0
  6
Continuous
 62
     7
370
    30
100
AcDbLine
 10
6.4257618045
 20
7.0860821094
 30
0.0
 11
6.4627617837
 21
7.0860821094
 31
0.0
  0
LINE
  5
12D
330
1F
100
AcDbEntity
  8
0
  6
Continuous
 62
     7
370
    30
100
AcDbLine
 10
6.4627617837
 20
6.5860821521
 30
0.0
 11
5.9567617991
 21
6.5860821521
 31
0.0
  0
LINE
  5
12E
330
1F
100
AcDbEntity
  8
0
  6
Continuous
 62
     7
370
    30
100
AcDbLine
 10
5.9567617991
 20
6.5860821521
 30
0.0
 11
5.9567617991
 21
6.8710821131
 31
0.0
  0
LINE
  5
12F
330
1F
100
AcDbEntity
  8
0
  6
Continuous
 62
     7
370
    30
100
AcDbLine
 10
5.9567617991
 20
6.8710821131
 30
0.0
 11
5.5710018746
 21
6.8710821131
 31
0.0
  0
LINE
  5
130
330
1F
100
AcDbEntity
  8
0
  6
Continuous
 62
     7
370
    30
100
AcDbLine
 10
5.5540377147
 20
6.8710821131
 30
0.0
 11
5.3594858955
 21
6.8710821131
 31
0.0
  0
LINE
  5
131
330
1F
100
AcDbEntity
  8
0
  6
Continuous
 62
     7
370
    30
100
AcDbLine
 10
5.3425217356
 20
6.8710821131
 30
0.0
 11
4.9567618111
 21
6.8710821131
 31
0.0
  0
LINE
  5
132
330
1F
100
AcDbEntity
  8
0
  6
Continuous
 62
     7
370
    30
100
AcDbLine
 10
4.9567618111
 20
6.8710821131
 30
0.0
 11
4.9567618111
 21
6.5860821521
 31
0.0
  0
LINE
  5
133
330
1F
100
AcDbEntity
  8
0
  6
Continuous
 62
     7
370
    30
100
AcDbLine
 10
4.9567618111
 20
6.5860821521
 30
0.0
 11
4.4507618265
 21
6.5860821521
 31
0.0
  0
LINE
  5
134
330
1F
100
AcDbEntity
  8
0
  6
Continuous
 62
     7
370
    30
100
AcDbLine
 10
4.4877618057
 20
7.1800821835
 30
0.0
 11
4.4877618057
 21
7.0860821094
 31
0.0
  0
LINE
  5
135
330
1F
100
AcDbEntity
  8
0
  6
Continuous
 62
     7
370
    30
100
AcDbLine
 10
4.4877618057
 20
7.1800821835
 30
0.0
 11
6.4257618045
 21
7.1800821835
 31
0.0
  0
LINE
  5
136
330
1F
100
AcDbEntity
  8
0
  6
Continuous
 62
     7
370
    30
100
AcDbLine
 10
6.4257618045
 20
7.0860821094
 30
0.0
 11
6.4257618045
 21
7.1800821835
 31
0.0
  0
LINE
  5
137
330
1F
100
AcDbEntity
  8
0
  6
Continuous
 62
     7
370
    30
100
AcDbLine
 10
5.7067618021
 20
6.8530820677
 30
0.0
 11
5.7067618021
 21
6.8710821131
 31
0.0
  0
LINE
  5
138
330
1F
100
AcDbEntity
  8
0
  6
Continuous
 62
     7
370
    30
100
AcDbLine
 10
5.2067618081
 20
6.8710821131
 30
0.0
 11
5.2067618081
 21
6.8530820677
 31
0.0
  0
LINE
  5
139
330
1F
100
AcDbEntity
  8
0
  6
Continuous
 62
     7
370
    30
100
AcDbLine
 10
5.7067618021
 20
6.8530820677
 30
0.0
 11
5.7067618021
 21
6.8132447812
 31
0.0
  0
LINE
  5
13A
330
1F
100
AcDbEntity
  8
0
  6
Continuous
 62
     7
370
    30
100
AcDbLine
 10
5.7067618021
 20
6.8001299994
 30
0.0
 11
5.7067618021
 21
6.7590821402
 31
0.0
  0
LINE
  5
13B
330
1F
100
AcDbEntity
  8
0
  6
Continuous
 62
     7
370
    30
100
AcDbLine
 10
5.7067618021
 20
6.7590821402
 30
0.0
 11
5.6447618066
 21
6.7590821402
 31
0.0
  0
LINE
  5
13C
330
1F
100
AcDbEntity
  8
0
  6
Continuous
 62
     7
370
    30
100
AcDbLine
 10
5.5303316227
 20
6.7590821402
 30
0.0
 11
5.3658810658
 21
6.7590821402
 31
0.0
  0
LINE
  5
13D
330
1F
100
AcDbEntity
  8
0
  6
Continuous
 62
     7
370
    30
100
AcDbLine
 10
5.2687618036
 20
6.7590821402
 30
0.0
 11
5.2067618081
 21
6.7590821402
 31
0.0
  0
LINE
  5
13E
330
1F
100
AcDbEntity
  8
0
  6
Continuous
 62
     7
370
    30
100
AcDbLine
 10
5.2067618081
 20
6.7590821402
 30
0.0
 11
5.2067618081
 21
6.8001299994
 31
0.0
  0
LINE
  5
13F
330
1F
100
AcDbEntity
  8
0
  6
Continuous
 62
     7
370
    30
100
AcDbLine
 10
5.2067618081
 20
6.8132447812
 30
0.0
 11
5.2067618081
 21
6.8530820677
 31
0.0
  0
LINE
  5
140
330
1F
100
AcDbEntity
  8
0
  6
Continuous
 62
     7
370
    30
100
AcDbLine
 10
7.8169647932
 20
5.2838818073
 30
0.0
 11
6.2367618411
 21
5.2624882885
 31
0.0
  0
LINE
  5
141
330
1F
100
AcDbEntity
  8
0
  6
Continuous
 62
     7
370
    30
100
AcDbLine
 10
6.2367618411
 20
5.2624882885
 30
0.0
 11
6.2367618411
 21
5.2560821355
 31
0.0
  0
ARC
  5
142
330
1F
100
AcDbEntity
  8
0
  6
Continuous
 62
     7
370
    30
100
AcDbCircle
 10
6.2117618051
 20
5.2560821351
 30
0.0
 40
0.0250000000000004
100
AcDbArc
 50
270.0
 51
0.0
  0
ARC
  5
143
330
1F
100
AcDbEntity
  8
0
  6
Continuous
 62
     7
370
    30
100
AcDbCircle
 10
6.2117618051
 20
5.2360821351
 30
0.0
 40
0.0049999999999999
100
AcDbArc
 50
180.0
 51
270.0
  0
LINE
  5
144
330
1F
100
AcDbEntity
  8
0
  6
Continuous
 62
     7
370
    30
100
AcDbLine
 10
6.2067618144
 20
5.3090821358
 30
0.0
 11
6.2067618144
 21
5.2360821345
 31
0.0
  0
LINE
  5
145
330
1F
100
AcDbEntity
  8
0
  6
Continuous
 62
     7
370
    30
100
AcDbLine
 10
6.2217618278
 20
5.3240821354
 30
0.0
 11
6.5417617711
 21
5.3240821354
 31
0.0
  0
LINE
  5
146
330
1F
100
AcDbEntity
  8
0
  6
Continuous
 62
     7
370
    30
100
AcDbLine
 10
6.5567617845
 20
5.339082135
 30
0.0
 11
6.5567617845
 21
6.346594312
 31
0.0
  0
ARC
  5
147
330
1F
100
AcDbEntity
  8
0
  6
Continuous
 62
     7
370
    30
100
AcDbCircle
 10
6.4817618051
 20
6.3465943005
 30
0.0
 40
0.0750000000000009
100
AcDbArc
 50
0.0
 51
83.3002348222
  0
LINE
  5
148
330
1F
100
AcDbEntity
  8
0
  6
Continuous
 62
     7
370
    30
100
AcDbLine
 10
6.4507618023
 20
6.4657748552
 30
0.0
 11
6.4507618023
 21
6.5410821119
 31
0.0
  0
ARC
  5
149
330
1F
100
AcDbEntity
  8
0
  6
Continuous
 62
     7
370
    30
100
AcDbCircle
 10
6.4607618051
 20
6.5410821351
 30
0.0
 40
0.0099999999999998
100
AcDbArc
 50
90.0
 51
180.0
  0
LINE
  5
14A
330
1F
100
AcDbEntity
  8
0
  6
Continuous
 62
     7
370
    30
100
AcDbLine
 10
6.4671978125
 20
6.5510821697
 30
0.0
 11
6.5007617981
 21
6.5110820852
 31
0.0
  0
LINE
  5
14B
330
1F
100
AcDbEntity
  8
0
  6
Continuous
 62
     7
370
    30
100
AcDbLine
 10
6.5007617981
 20
6.5110820852
 30
0.0
 11
6.4950496374
 21
6.4786868727
 31
0.0
  0
LINE
  5
14C
330
1F
100
AcDbEntity
  8
0
  6
Continuous
 62
     7
370
    30
100
AcDbLine
 10
6.5098217334
 20
6.4610821628
 30
0.0
 11
6.5417617711
 21
6.4610821628
 31
0.0
  0
LINE
  5
14D
330
1F
100
AcDbEntity
  8
0
  6
Continuous
 62
     7
370
    30
100
AcDbLine
 10
6.5567617845
 20
6.4760821028
 30
0.0
 11
6.5567617845
 21
7.0760821982
 31
0.0
  0
LINE
  5
14E
330
1F
100
AcDbEntity
  8
0
  6
Continuous
 62
     7
370
    30
100
AcDbLine
 10
6.5667617689
 20
7.0860821094
 30
0.0
 11
6.5967617957
 21
7.0860821094
 31
0.0
  0
LINE
  5
14F
330
1F
100
AcDbEntity
  8
0
  6
Continuous
 62
     7
370
    30
100
AcDbLine
 10
6.6067617802
 20
7.0760821982
 30
0.0
 11
6.6067617802
 21
6.2850821426
 31
0.0
  0
LINE
  5
150
330
1F
100
AcDbEntity
  8
0
  6
Continuous
 62
     7
370
    30
100
AcDbLine
 10
6.6217617936
 20
6.2700821292
 30
0.0
 11
6.6542617981
 21
6.2700821292
 31
0.0
  0
LINE
  5
151
330
1F
100
AcDbEntity
  8
0
  6
Continuous
 62
     7
370
    30
100
AcDbLine
 10
6.6692618115
 20
6.2850821426
 30
0.0
 11
6.6692618115
 21
6.3238321283
 31
0.0
  0
LINE
  5
152
330
1F
100
AcDbEntity
  8
0
  6
Continuous
 62
     7
370
    30
100
AcDbLine
 10
6.6842618249
 20
6.3388321417
 30
0.0
 11
6.7042617939
 21
6.3388321417
 31
0.0
  0
LINE
  5
153
330
1F
100
AcDbEntity
  8
0
  6
Continuous
 62
     7
370
    30
100
AcDbLine
 10
6.7192618073
 20
6.3238321283
 30
0.0
 11
6.7192618073
 21
6.1663321344
 31
0.0
  0
LINE
  5
154
330
1F
100
AcDbEntity
  8
0
  6
Continuous
 62
     7
370
    30
100
AcDbLine
 10
6.7042617939
 20
6.151332121
 30
0.0
 11
6.6842618249
 21
6.151332121
 31
0.0
  0
LINE
  5
155
330
1F
100
AcDbEntity
  8
0
  6
Continuous
 62
     7
370
    30
100
AcDbLine
 10
6.6692618115
 20
6.1663321344
 30
0.0
 11
6.6692618115
 21
6.2050821201
 31
0.0
  0
LINE
  5
156
330
1F
100
AcDbEntity
  8
0
  6
Continuous
 62
     7
370
    30
100
AcDbLine
 10
6.6542617981
 20
6.2200821335
 30
0.0
 11
6.6217617936
 21
6.2200821335
 31
0.0
  0
LINE
  5
157
330
1F
100
AcDbEntity
  8
0
  6
Continuous
 62
     7
370
    30
100
AcDbLine
 10
6.6067617802
 20
5.5300821411
 30
0.0
 11
6.6067617802
 21
5.339082135
 31
0.0
  0
LINE
  5
158
330
1F
100
AcDbEntity
  8
0
  6
Continuous
 62
     7
370
    30
100
AcDbLine
 10
6.6217617936
 20
5.3240821354
 30
0.0
 11
7.8167618088
 21
5.3240821354
 31
0.0
  0
LINE
  5
159
330
1F
100
AcDbEntity
  8
0
  6
Continuous
 62
     7
370
    30
100
AcDbLine
 10
7.8317618222
 20
5.3090821358
 30
0.0
 11
7.8317618222
 21
5.298880432
 31
0.0
  0
LINE
  5
15A
330
1F
100
AcDbEntity
  8
0
  6
Continuous
 62
     7
370
    30
100
AcDbLine
 10
6.4607617868
 20
6.5510821697
 30
0.0
 11
6.4671978125
 21
6.5510821697
 31
0.0
  0
ARC
  5
15B
330
1F
100
AcDbEntity
  8
0
  6
Continuous
 62
     7
370
    30
100
AcDbCircle
 10
6.5967618051
 20
7.0760821351
 30
0.0
 40
0.0100000000000007
100
AcDbArc
 50
0.0
 51
90.0
  0
ARC
  5
15C
330
1F
100
AcDbEntity
  8
0
  6
Continuous
 62
     7
370
    30
100
AcDbCircle
 10
6.5667618051
 20
7.0760821351
 30
0.0
 40
0.0100000000000007
100
AcDbArc
 50
90.0
 51
180.0
  0
ARC
  5
15D
330
1F
100
AcDbEntity
  8
0
  6
Continuous
 62
     7
370
    30
100
AcDbCircle
 10
6.4957618051
 20
6.4657748358
 30
0.0
 40
0.044999999999999
100
AcDbArc
 50
180.0
 51
263.3002348222
  0
ARC
  5
15E
330
1F
100
AcDbEntity
  8
0
  6
Continuous
 62
     7
370
    30
100
AcDbCircle
 10
6.7042618051
 20
5.5600821351
 30
0.0
 40
0.0149999999999997
100
AcDbArc
 50
270.0
 51
0.0
  0
ARC
  5
15F
330
1F
100
AcDbEntity
  8
0
  6
Continuous
 62
     7
370
    30
100
AcDbCircle
 10
6.7042618051
 20
5.6488321351
 30
0.0
 40
0.0150000000000015
100
AcDbArc
 50
0.0
 51
90.0
  0
ARC
  5
160
330
1F
100
AcDbEntity
  8
0
  6
Continuous
 62
     7
370
    30
100
AcDbCircle
 10
6.6842618051
 20
5.6488321351
 30
0.0
 40
0.0150000000000015
100
AcDbArc
 50
90.0
 51
180.0
  0
ARC
  5
161
330
1F
100
AcDbEntity
  8
0
  6
Continuous
 62
     7
370
    30
100
AcDbCircle
 10
6.6217618051
 20
5.6100821351
 30
0.0
 40
0.0149999999999997
100
AcDbArc
 50
180.0
 51
270.0
  0
ARC
  5
162
330
1F
100
AcDbEntity
  8
0
  6
Continuous
 62
     7
370
    30
100
AcDbCircle
 10
6.6542618051
 20
5.6100821351
 30
0.0
 40
0.0149999999999997
100
AcDbArc
 50
270.0
 51
0.0
  0
ARC
  5
163
330
1F
100
AcDbEntity
  8
0
  6
Continuous
 62
     7
370
    30
100
AcDbCircle
 10
6.7042618051
 20
6.1663321351
 30
0.0
 40
0.0149999999999997
100
AcDbArc
 50
270.0
 51
0.0
  0
ARC
  5
164
330
1F
100
AcDbEntity
  8
0
  6
Continuous
 62
     7
370
    30
100
AcDbCircle
 10
6.6842618051
 20
6.1663321351
 30
0.0
 40
0.0150000000000015
100
AcDbArc
 50
180.0
 51
270.0
  0
ARC
  5
165
330
1F
100
AcDbEntity
  8
0
  6
Continuous
 62
     7
370
    30
100
AcDbCircle
 10
6.6542618051
 20
6.2050821351
 30
0.0
 40
0.0149999999999997
100
AcDbArc
 50
0.0
 51
90.0
  0
ARC
  5
166
330
1F
100
AcDbEntity
  8
0
  6
Continuous
 62
     7
370
    30
100
AcDbCircle
 10
6.6217618051
 20
6.2850821351
 30
0.0
 40
0.0149999999999997
100
AcDbArc
 50
180.0
 51
270.0
  0
ARC
  5
167
330
1F
100
AcDbEntity
  8
0
  6
Continuous
 62
     7
370
    30
100
AcDbCircle
 10
6.6217618051
 20
6.2050821351
 30
0.0
 40
0.0149999999999997
100
AcDbArc
 50
90.0
 51
180.0
  0
ARC
  5
168
330
1F
100
AcDbEntity
  8
0
  6
Continuous
 62
     7
370
    30
100
AcDbCircle
 10
6.5417618051
 20
6.4760821351
 30
0.0
 40
0.0150000000000006
100
AcDbArc
 50
270.0
 51
0.0
  0
ARC
  5
169
330
1F
100
AcDbEntity
  8
0
  6
Continuous
 62
     7
370
    30
100
AcDbCircle
 10
6.50982176
 20
6.4760821351
 30
0.0
 40
0.0150000000000006
100
AcDbArc
 50
170.0
 51
270.0
  0
ARC
  5
16A
330
1F
100
AcDbEntity
  8
0
  6
Continuous
 62
     7
370
    30
100
AcDbCircle
 10
6.5417618051
 20
5.3390821351
 30
0.0
 40
0.0149999999999997
100
AcDbArc
 50
270.0
 51
0.0
  0
ARC
  5
16B
330
1F
100
AcDbEntity
  8
0
  6
Continuous
 62
     7
370
    30
100
AcDbCircle
 10
6.2217618051
 20
5.3090821351
 30
0.0
 40
0.0149999999999997
100
AcDbArc
 50
90.0
 51
180.0
  0
ARC
  5
16C
330
1F
100
AcDbEntity
  8
0
  6
Continuous
 62
     7
370
    30
100
AcDbCircle
 10
7.8167618051
 20
5.3090821351
 30
0.0
 40
0.0150000000000006
100
AcDbArc
 50
0.0
 51
90.0
  0
ARC
  5
16D
330
1F
100
AcDbEntity
  8
0
  6
Continuous
 62
     7
370
    30
100
AcDbCircle
 10
7.8167618051
 20
5.2988804328
 30
0.0
 40
0.0150000000000006
100
AcDbArc
 50
270.77564932
 51
0.0
  0
ARC
  5
16E
330
1F
100
AcDbEntity
  8
0
  6
Continuous
 62
     7
370
    30
100
AcDbCircle
 10
6.7042618051
 20
6.3238321351
 30
0.0
 40
0.0149999999999997
100
AcDbArc
 50
0.0
 51
90.0
  0
ARC
  5
16F
330
1F
100
AcDbEntity
  8
0
  6
Continuous
 62
     7
370
    30
100
AcDbCircle
 10
6.6842618051
 20
6.3238321351
 30
0.0
 40
0.0150000000000015
100
AcDbArc
 50
90.0
 51
180.0
  0
ARC
  5
170
330
1F
100
AcDbEntity
  8
0
  6
Continuous
 62
     7
370
    30
100
AcDbCircle
 10
6.6542618051
 20
6.2850821351
 30
0.0
 40
0.0149999999999997
100
AcDbArc
 50
270.0
 51
0.0
  0
ARC
  5
171
330
1F
100
AcDbEntity
  8
0
  6
Continuous
 62
     7
370
    30
100
AcDbCircle
 10
6.6217618051
 20
5.5300821351
 30
0.0
 40
0.0150000000000006
100
AcDbArc
 50
90.0
 51
180.0
  0
ARC
  5
172
330
1F
100
AcDbEntity
  8
0
  6
Continuous
 62
     7
370
    30
100
AcDbCircle
 10
6.6217618051
 20
5.3390821351
 30
0.0
 40
0.0149999999999997
100
AcDbArc
 50
180.0
 51
270.0
  0
LINE
  5
173
330
1F
100
AcDbEntity
  8
0
  6
Continuous
 62
     7
370
    30
100
AcDbLine
 10
6.7042617939
 20
5.5450821361
 30
0.0
 11
6.6217617936
 21
5.5450821361
 31
0.0
  0
LINE
  5
174
330
1F
100
AcDbEntity
  8
0
  6
Continuous
 62
     7
370
    30
100
AcDbLine
 10
6.7192618073
 20
5.6488321493
 30
0.0
 11
6.7192618073
 21
5.5600821312
 31
0.0
  0
LINE
  5
175
330
1F
100
AcDbEntity
  8
0
  6
Continuous
 62
     7
370
    30
100
AcDbLine
 10
6.6842618249
 20
5.663832126
 30
0.0
 11
6.7042617939
 21
5.663832126
 31
0.0
  0
LINE
  5
176
330
1F
100
AcDbEntity
  8
0
  6
Continuous
 62
     7
370
    30
100
AcDbLine
 10
6.6692618115
 20
5.6100821269
 30
0.0
 11
6.6692618115
 21
5.6488321493
 31
0.0
  0
LINE
  5
177
330
1F
100
AcDbEntity
  8
0
  6
Continuous
 62
     7
370
    30
100
AcDbLine
 10
6.6217617936
 20
5.5950821502
 30
0.0
 11
6.6542617981
 21
5.5950821502
 31
0.0
  0
LINE
  5
178
330
1F
100
AcDbEntity
  8
0
  6
Continuous
 62
     7
370
    30
100
AcDbLine
 10
6.6067617802
 20
6.2050821201
 30
0.0
 11
6.6067617802
 21
5.6100821269
 31
0.0
  0
ARC
  5
179
330
1F
100
AcDbEntity
  8
0
  6
Continuous
 62
     7
370
    30
100
AcDbCircle
 10
4.2917618051
 20
5.3390821351
 30
0.0
 40
0.0149999999999997
100
AcDbArc
 50
270.0
 51
0.0
  0
ARC
  5
17A
330
1F
100
AcDbEntity
  8
0
  6
Continuous
 62
     7
370
    30
100
AcDbCircle
 10
4.2917618051
 20
5.5300821351
 30
0.0
 40
0.0150000000000006
100
AcDbArc
 50
0.0
 51
90.0
  0
LINE
  5
17B
330
1F
100
AcDbEntity
  8
0
  6
Continuous
 62
     7
370
    30
100
AcDbLine
 10
4.2917618166
 20
5.5450821361
 30
0.0
 11
4.2092618163
 21
5.5450821361
 31
0.0
  0
ARC
  5
17C
330
1F
100
AcDbEntity
  8
0
  6
Continuous
 62
     7
370
    30
100
AcDbCircle
 10
4.2092618051
 20
5.5600821351
 30
0.0
 40
0.0150000000000006
100
AcDbArc
 50
180.0
 51
270.0
  0
ARC
  5
17D
330
1F
100
AcDbEntity
  8
0
  6
Continuous
 62
     7
370
    30
100
AcDbCircle
 10
4.2092618051
 20
5.6488321351
 30
0.0
 40
0.0150000000000015
100
AcDbArc
 50
90.0
 51
180.0
  0
LINE
  5
17E
330
1F
100
AcDbEntity
  8
0
  6
Continuous
 62
     7
370
    30
100
AcDbLine
 10
4.2092618163
 20
5.663832126
 30
0.0
 11
4.2292617853
 21
5.663832126
 31
0.0
  0
ARC
  5
17F
330
1F
100
AcDbEntity
  8
0
  6
Continuous
 62
     7
370
    30
100
AcDbCircle
 10
4.2292618051
 20
5.6488321351
 30
0.0
 40
0.0150000000000015
100
AcDbArc
 50
0.0
 51
90.0
  0
LINE
  5
180
330
1F
100
AcDbEntity
  8
0
  6
Continuous
 62
     7
370
    30
100
AcDbLine
 10
4.2442617987
 20
5.6488321493
 30
0.0
 11
4.2442617987
 21
5.6100821269
 31
0.0
  0
ARC
  5
181
330
1F
100
AcDbEntity
  8
0
  6
Continuous
 62
     7
370
    30
100
AcDbCircle
 10
4.2592618051
 20
5.6100821351
 30
0.0
 40
0.0149999999999997
100
AcDbArc
 50
180.0
 51
270.0
  0
ARC
  5
182
330
1F
100
AcDbEntity
  8
0
  6
Continuous
 62
     7
370
    30
100
AcDbCircle
 10
4.2917618051
 20
6.2050821351
 30
0.0
 40
0.0150000000000006
100
AcDbArc
 50
0.0
 51
90.0
  0
ARC
  5
183
330
1F
100
AcDbEntity
  8
0
  6
Continuous
 62
     7
370
    30
100
AcDbCircle
 10
4.2592618051
 20
6.2050821351
 30
0.0
 40
0.0150000000000006
100
AcDbArc
 50
90.0
 51
180.0
  0
ARC
  5
184
330
1F
100
AcDbEntity
  8
0
  6
Continuous
 62
     7
370
    30
100
AcDbCircle
 10
4.2292618051
 20
6.1663321351
 30
0.0
 40
0.0150000000000006
100
AcDbArc
 50
270.0
 51
0.0
  0
ARC
  5
185
330
1F
100
AcDbEntity
  8
0
  6
Continuous
 62
     7
370
    30
100
AcDbCircle
 10
4.2092618051
 20
6.1663321351
 30
0.0
 40
0.0150000000000006
100
AcDbArc
 50
180.0
 51
270.0
  0
ARC
  5
186
330
1F
100
AcDbEntity
  8
0
  6
Continuous
 62
     7
370
    30
100
AcDbCircle
 10
4.2092618051
 20
6.3238321351
 30
0.0
 40
0.0150000000000006
100
AcDbArc
 50
90.0
 51
180.0
  0
ARC
  5
187
330
1F
100
AcDbEntity
  8
0
  6
Continuous
 62
     7
370
    30
100
AcDbCircle
 10
4.2292618051
 20
6.3238321351
 30
0.0
 40
0.0150000000000006
100
AcDbArc
 50
0.0
 51
90.0
  0
ARC
  5
188
330
1F
100
AcDbEntity
  8
0
  6
Continuous
 62
     7
370
    30
100
AcDbCircle
 10
4.2917618051
 20
6.2850821351
 30
0.0
 40
0.0149999999999997
100
AcDbArc
 50
270.0
 51
0.0
  0
ARC
  5
189
330
1F
100
AcDbEntity
  8
0
  6
Continuous
 62
     7
370
    30
100
AcDbCircle
 10
4.3167618051
 20
7.0760821351
 30
0.0
 40
0.0100000000000007
100
AcDbArc
 50
90.0
 51
180.0
  0
ARC
  5
18A
330
1F
100
AcDbEntity
  8
0
  6
Continuous
 62
     7
370
    30
100
AcDbCircle
 10
4.3467618051
 20
7.0760821351
 30
0.0
 40
0.0100000000000007
100
AcDbArc
 50
0.0
 51
90.0
  0
ARC
  5
18B
330
1F
100
AcDbEntity
  8
0
  6
Continuous
 62
     7
370
    30
100
AcDbCircle
 10
4.3717618051
 20
6.4760821351
 30
0.0
 40
0.0150000000000006
100
AcDbArc
 50
180.0
 51
270.0
  0
ARC
  5
18C
330
1F
100
AcDbEntity
  8
0
  6
Continuous
 62
     7
370
    30
100
AcDbCircle
 10
4.3717618051
 20
5.3390821351
 30
0.0
 40
0.0149999999999997
100
AcDbArc
 50
180.0
 51
270.0
  0
ARC
  5
18D
330
1F
100
AcDbEntity
  8
0
  6
Continuous
 62
     7
370
    30
100
AcDbCircle
 10
4.6917618051
 20
5.3090821351
 30
0.0
 40
0.0149999999999997
100
AcDbArc
 50
0.0
 51
90.0
  0
LINE
  5
18E
330
1F
100
AcDbEntity
  8
0
  6
Continuous
 62
     7
370
    30
100
AcDbLine
 10
4.7067617958
 20
5.3090821358
 30
0.0
 11
4.7067617958
 21
5.2360821345
 31
0.0
  0
ARC
  5
18F
330
1F
100
AcDbEntity
  8
0
  6
Continuous
 62
     7
370
    30
100
AcDbCircle
 10
4.7017618051
 20
5.2360821351
 30
0.0
 40
0.0050000000000008
100
AcDbArc
 50
270.0
 51
0.0
  0
ARC
  5
190
330
1F
100
AcDbEntity
  8
0
  6
Continuous
 62
     7
370
    30
100
AcDbCircle
 10
3.0967618051
 20
5.2988804328
 30
0.0
 40
0.0150000000000002
100
AcDbArc
 50
180.0
 51
269.22435068
  0
LINE
  5
191
330
1F
100
AcDbEntity
  8
0
  6
Continuous
 62
     7
370
    30
100
AcDbLine
 10
4.4627618079
 20
6.5410821119
 30
0.0
 11
4.4627618079
 21
6.4657748552
 31
0.0
  0
ARC
  5
192
330
1F
100
AcDbEntity
  8
0
  6
Continuous
 62
     7
370
    30
100
AcDbCircle
 10
4.4177618051
 20
6.4657748358
 30
0.0
 40
0.044999999999999
100
AcDbArc
 50
276.6997651778
 51
0.0
  0
ARC
  5
193
330
1F
100
AcDbEntity
  8
0
  6
Continuous
 62
     7
370
    30
100
AcDbCircle
 10
4.4317618051
 20
6.3465943005
 30
0.0
 40
0.075000000000001
100
AcDbArc
 50
96.6997651778
 51
180.0
  0
LINE
  5
194
330
1F
100
AcDbEntity
  8
0
  6
Continuous
 62
     7
370
    30
100
AcDbLine
 10
4.3567618257
 20
6.346594312
 30
0.0
 11
4.3567618257
 21
5.339082135
 31
0.0
  0
LINE
  5
195
330
1F
100
AcDbEntity
  8
0
  6
Continuous
 62
     7
370
    30
100
AcDbLine
 10
4.3717618391
 20
5.3240821354
 30
0.0
 11
4.6917617824
 21
5.3240821354
 31
0.0
  0
ARC
  5
196
330
1F
100
AcDbEntity
  8
0
  6
Continuous
 62
     7
370
    30
100
AcDbCircle
 10
4.2917618051
 20
5.6100821351
 30
0.0
 40
0.0149999999999997
100
AcDbArc
 50
270.0
 51
0.0
  0
ARC
  5
197
330
1F
100
AcDbEntity
  8
0
  6
Continuous
 62
     7
370
    30
100
AcDbCircle
 10
4.7017618051
 20
5.2560821351
 30
0.0
 40
0.0250000000000012
100
AcDbArc
 50
180.0
 51
270.0
  0
LINE
  5
198
330
1F
100
AcDbEntity
  8
0
  6
Continuous
 62
     7
370
    30
100
AcDbLine
 10
4.6767617691
 20
5.2560821355
 30
0.0
 11
4.6767617691
 21
5.2624882885
 31
0.0
  0
LINE
  5
199
330
1F
100
AcDbEntity
  8
0
  6
Continuous
 62
     7
370
    30
100
AcDbLine
 10
4.6767617691
 20
5.2624882885
 30
0.0
 11
3.096558817
 21
5.2838818073
 31
0.0
  0
LINE
  5
19A
330
1F
100
AcDbEntity
  8
0
  6
Continuous
 62
     7
370
    30
100
AcDbLine
 10
3.081761788
 20
5.3090821358
 30
0.0
 11
3.081761788
 21
5.298880432
 31
0.0
  0
LINE
  5
19B
330
1F
100
AcDbEntity
  8
0
  6
Continuous
 62
     7
370
    30
100
AcDbLine
 10
3.0967618014
 20
5.3240821354
 30
0.0
 11
4.2917618166
 21
5.3240821354
 31
0.0
  0
LINE
  5
19C
330
1F
100
AcDbEntity
  8
0
  6
Continuous
 62
     7
370
    30
100
AcDbLine
 10
4.30676183
 20
5.339082135
 30
0.0
 11
4.30676183
 21
5.5300821411
 31
0.0
  0
LINE
  5
19D
330
1F
100
AcDbEntity
  8
0
  6
Continuous
 62
     7
370
    30
100
AcDbLine
 10
4.2442617987
 20
6.3238321283
 30
0.0
 11
4.2442617987
 21
6.2850821426
 31
0.0
  0
ARC
  5
19E
330
1F
100
AcDbEntity
  8
0
  6
Continuous
 62
     7
370
    30
100
AcDbCircle
 10
4.4037018502
 20
6.4760821351
 30
0.0
 40
0.0150000000000007
100
AcDbArc
 50
270.0
 51
10.0
  0
LINE
  5
19F
330
1F
100
AcDbEntity
  8
0
  6
Continuous
 62
     7
370
    30
100
AcDbLine
 10
4.30676183
 20
6.2850821426
 30
0.0
 11
4.30676183
 21
7.0760821982
 31
0.0
  0
LINE
  5
1A0
330
1F
100
AcDbEntity
  8
0
  6
Continuous
 62
     7
370
    30
100
AcDbLine
 10
4.3167618145
 20
7.0860821094
 30
0.0
 11
4.3467618412
 21
7.0860821094
 31
0.0
  0
ARC
  5
1A1
330
1F
100
AcDbEntity
  8
0
  6
Continuous
 62
     7
370
    30
100
AcDbCircle
 10
3.0967618051
 20
5.3090821351
 30
0.0
 40
0.0150000000000001
100
AcDbArc
 50
90.0
 51
180.0
  0
LINE
  5
1A2
330
1F
100
AcDbEntity
  8
0
  6
Continuous
 62
     7
370
    30
100
AcDbLine
 10
4.3717618391
 20
6.4610821628
 30
0.0
 11
4.4037018768
 21
6.4610821628
 31
0.0
  0
LINE
  5
1A3
330
1F
100
AcDbEntity
  8
0
  6
Continuous
 62
     7
370
    30
100
AcDbLine
 10
4.4184739728
 20
6.4786868727
 30
0.0
 11
4.4127618121
 21
6.5110820852
 31
0.0
  0
LINE
  5
1A4
330
1F
100
AcDbEntity
  8
0
  6
Continuous
 62
     7
370
    30
100
AcDbLine
 10
4.4127618121
 20
6.5110820852
 30
0.0
 11
4.4463257977
 21
6.5510821697
 31
0.0
  0
ARC
  5
1A5
330
1F
100
AcDbEntity
  8
0
  6
Continuous
 62
     7
370
    30
100
AcDbCircle
 10
4.2592618051
 20
6.2850821351
 30
0.0
 40
0.0149999999999997
100
AcDbArc
 50
180.0
 51
270.0
  0
ARC
  5
1A6
330
1F
100
AcDbEntity
  8
0
  6
Continuous
 62
     7
370
    30
100
AcDbCircle
 10
4.4527618051
 20
6.5410821351
 30
0.0
 40
0.0099999999999998
100
AcDbArc
 50
0.0
 51
90.0
  0
LINE
  5
1A7
330
1F
100
AcDbEntity
  8
0
  6
Continuous
 62
     7
370
    30
100
AcDbLine
 10
4.2092618163
 20
6.3388321417
 30
0.0
 11
4.2292617853
 21
6.3388321417
 31
0.0
  0
LINE
  5
1A8
330
1F
100
AcDbEntity
  8
0
  6
Continuous
 62
     7
370
    30
100
AcDbLine
 10
4.30676183
 20
5.6100821269
 30
0.0
 11
4.30676183
 21
6.2050821201
 31
0.0
  0
LINE
  5
1A9
330
1F
100
AcDbEntity
  8
0
  6
Continuous
 62
     7
370
    30
100
AcDbLine
 10
4.1942618029
 20
5.5600821312
 30
0.0
 11
4.1942618029
 21
5.6488321493
 31
0.0
  0
LINE
  5
1AA
330
1F
100
AcDbEntity
  8
0
  6
Continuous
 62
     7
370
    30
100
AcDbLine
 10
4.2442617987
 20
6.2050821201
 30
0.0
 11
4.2442617987
 21
6.1663321344
 31
0.0
  0
LINE
  5
1AB
330
1F
100
AcDbEntity
  8
0
  6
Continuous
 62
     7
370
    30
100
AcDbLine
 10
4.2292617853
 20
6.151332121
 30
0.0
 11
4.2092618163
 21
6.151332121
 31
0.0
  0
LINE
  5
1AC
330
1F
100
AcDbEntity
  8
0
  6
Continuous
 62
     7
370
    30
100
AcDbLine
 10
4.2592618121
 20
5.5950821502
 30
0.0
 11
4.2917618166
 21
5.5950821502
 31
0.0
  0
LINE
  5
1AD
330
1F
100
AcDbEntity
  8
0
  6
Continuous
 62
     7
370
    30
100
AcDbLine
 10
4.3567618257
 20
7.0760821982
 30
0.0
 11
4.3567618257
 21
6.4760821028
 31
0.0
  0
LINE
  5
1AE
330
1F
100
AcDbEntity
  8
0
  6
Continuous
 62
     7
370
    30
100
AcDbLine
 10
4.2917618166
 20
6.2200821335
 30
0.0
 11
4.2592618121
 21
6.2200821335
 31
0.0
  0
LINE
  5
1AF
330
1F
100
AcDbEntity
  8
0
  6
Continuous
 62
     7
370
    30
100
AcDbLine
 10
4.2592618121
 20
6.2700821292
 30
0.0
 11
4.2917618166
 21
6.2700821292
 31
0.0
  0
LINE
  5
1B0
330
1F
100
AcDbEntity
  8
0
  6
Continuous
 62
     7
370
    30
100
AcDbLine
 10
4.4463257977
 20
6.5510821697
 30
0.0
 11
4.4527618234
 21
6.5510821697
 31
0.0
  0
LINE
  5
1B1
330
1F
100
AcDbEntity
  8
0
  6
Continuous
 62
     7
370
    30
100
AcDbLine
 10
4.1942618029
 20
6.1663321344
 30
0.0
 11
4.1942618029
 21
6.3238321283
 31
0.0
  0
LINE
  5
1B2
330
1F
100
AcDbEntity
  8
0
  6
Continuous
 62
     8
370
    30
100
AcDbLine
 10
5.2067618081
 20
6.8530820677
 30
0.0
 11
5.3177953229
 21
6.8530820677
 31
0.0
  0
LINE
  5
1B3
330
1F
100
AcDbEntity
  8
0
  6
Continuous
 62
     8
370
    30
100
AcDbLine
 10
5.3430136316
 20
6.8530820677
 30
0.0
 11
5.5705099786
 21
6.8530820677
 31
0.0
  0
LINE
  5
1B4
330
1F
100
AcDbEntity
  8
0
  6
Continuous
 62
     8
370
    30
100
AcDbLine
 10
5.5957282872
 20
6.8530820677
 30
0.0
 11
5.7067618021
 21
6.8530820677
 31
0.0
  0
MTEXT
  5
1B6
330
1F
100
AcDbEntity
  8
FORMAT
100
AcDbMText
 10
4.894740598
 20
5.1575563176
 30
0.0
 40
0.125
 41
0.0
 71
     1
 72
     1
  1
ML-40, TYPE 22, 1 SLOT
  7
SLDTEXTSTYLE0
 73
     1
 44
1.0
  0
LINE
  5
1B7
330
1F
100
AcDbEntity
  8
0
  6
Continuous
 62
     7
370
    30
100
AcDbLine
 10
4.239761824
 20
3.5987850751
 30
0.0
 11
4.239761824
 21
3.590664089
 31
0.0
  0
LINE
  5
1B8
330
1F
100
AcDbEntity
  8
0
  6
Continuous
 62
     7
370
    30
100
AcDbLine
 10
4.239761824
 20
3.563561722
 30
0.0
 11
4.239761824
 21
3.5554407359
 31
0.0
  0
LINE
  5
1B9
330
1F
100
AcDbEntity
  8
0
  6
Continuous
 62
     7
370
    30
100
AcDbLine
 10
4.239761824
 20
3.5283382223
 30
0.0
 11
4.239761824
 21
3.5202173828
 31
0.0
  0
LINE
  5
1BA
330
1F
100
AcDbEntity
  8
0
  6
Continuous
 62
     7
370
    30
100
AcDbLine
 10
4.239761824
 20
3.4931148692
 30
0.0
 11
4.239761824
 21
3.484993883
 31
0.0
  0
LINE
  5
1BB
330
1F
100
AcDbEntity
  8
0
  6
Continuous
 62
     7
370
    30
100
AcDbLine
 10
4.239761824
 20
3.4578913694
 30
0.0
 11
4.239761824
 21
3.4497705299
 31
0.0
  0
LINE
  5
1BC
330
1F
100
AcDbEntity
  8
0
  6
Continuous
 62
     7
370
    30
100
AcDbLine
 10
4.4237618317
 20
3.4382413431
 30
0.0
 11
4.4237618317
 21
3.4384836336
 31
0.0
  0
LINE
  5
1BD
330
1F
100
AcDbEntity
  8
0
  6
Continuous
 62
     7
370
    30
100
AcDbLine
 10
4.4237618317
 20
3.4656217868
 30
0.0
 11
4.4237618317
 21
3.4737069867
 31
0.0
  0
LINE
  5
1BE
330
1F
100
AcDbEntity
  8
0
  6
Continuous
 62
     7
370
    30
100
AcDbLine
 10
4.4237618317
 20
3.5008451399
 30
0.0
 11
4.4237618317
 21
3.5089304865
 31
0.0
  0
LINE
  5
1BF
330
1F
100
AcDbEntity
  8
0
  6
Continuous
 62
     7
370
    30
100
AcDbLine
 10
4.4237618317
 20
3.5360686396
 30
0.0
 11
4.4237618317
 21
3.5441538396
 31
0.0
  0
LINE
  5
1C0
330
1F
100
AcDbEntity
  8
0
  6
Continuous
 62
     7
370
    30
100
AcDbLine
 10
4.4237618317
 20
3.5712919927
 30
0.0
 11
4.4237618317
 21
3.5793773393
 31
0.0
  0
LINE
  5
1C1
330
1F
100
AcDbEntity
  8
0
  6
Continuous
 62
     7
370
    30
100
AcDbLine
 10
4.4237618317
 20
3.6065154925
 30
0.0
 11
4.4237618317
 21
3.6146006924
 31
0.0
  0
LINE
  5
1C2
330
1F
100
AcDbEntity
  8
0
  6
Continuous
 62
     7
370
    30
100
AcDbLine
 10
6.4897617785
 20
3.5987850751
 30
0.0
 11
6.4897617785
 21
3.590664089
 31
0.0
  0
LINE
  5
1C3
330
1F
100
AcDbEntity
  8
0
  6
Continuous
 62
     7
370
    30
100
AcDbLine
 10
6.4897617785
 20
3.563561722
 30
0.0
 11
6.4897617785
 21
3.5554407359
 31
0.0
  0
LINE
  5
1C4
330
1F
100
AcDbEntity
  8
0
  6
Continuous
 62
     7
370
    30
100
AcDbLine
 10
6.4897617785
 20
3.5283382223
 30
0.0
 11
6.4897617785
 21
3.5202173828
 31
0.0
  0
LINE
  5
1C5
330
1F
100
AcDbEntity
  8
0
  6
Continuous
 62
     7
370
    30
100
AcDbLine
 10
6.4897617785
 20
3.4931148692
 30
0.0
 11
6.4897617785
 21
3.484993883
 31
0.0
  0
LINE
  5
1C6
330
1F
100
AcDbEntity
  8
0
  6
Continuous
 62
     7
370
    30
100
AcDbLine
 10
6.4897617785
 20
3.4578913694
 30
0.0
 11
6.4897617785
 21
3.4497705299
 31
0.0
  0
LINE
  5
1C7
330
1F
100
AcDbEntity
  8
0
  6
Continuous
 62
     7
370
    30
100
AcDbLine
 10
6.6737617862
 20
3.4382413431
 30
0.0
 11
6.6737617862
 21
3.4384836336
 31
0.0
  0
LINE
  5
1C8
330
1F
100
AcDbEntity
  8
0
  6
Continuous
 62
     7
370
    30
100
AcDbLine
 10
6.6737617862
 20
3.4656217868
 30
0.0
 11
6.6737617862
 21
3.4737069867
 31
0.0
  0
LINE
  5
1C9
330
1F
100
AcDbEntity
  8
0
  6
Continuous
 62
     7
370
    30
100
AcDbLine
 10
6.6737617862
 20
3.5008451399
 30
0.0
 11
6.6737617862
 21
3.5089304865
 31
0.0
  0
LINE
  5
1CA
330
1F
100
AcDbEntity
  8
0
  6
Continuous
 62
     7
370
    30
100
AcDbLine
 10
6.6737617862
 20
3.5360686396
 30
0.0
 11
6.6737617862
 21
3.5441538396
 31
0.0
  0
LINE
  5
1CB
330
1F
100
AcDbEntity
  8
0
  6
Continuous
 62
     7
370
    30
100
AcDbLine
 10
6.6737617862
 20
3.5712919927
 30
0.0
 11
6.6737617862
 21
3.5793773393
 31
0.0
  0
LINE
  5
1CC
330
1F
100
AcDbEntity
  8
0
  6
Continuous
 62
     7
370
    30
100
AcDbLine
 10
6.6737617862
 20
3.6065154925
 30
0.0
 11
6.6737617862
 21
3.6146006924
 31
0.0
  0
ARC
  5
1CD
330
1F
100
AcDbEntity
  8
0
  6
Continuous
 62
     7
370
    30
100
AcDbCircle
 10
6.3967218873
 20
3.412174177
 30
0.0
 40
0.0100000000000012
100
AcDbArc
 50
107.0067954764
 51
176.5
  0
LINE
  5
1CE
330
1F
100
AcDbEntity
  8
0
  6
Continuous
 62
     7
370
    30
100
AcDbLine
 10
6.3629358836
 20
3.0235822866
 30
0.0
 11
6.3867405619
 21
3.4127847038
 31
0.0
  0
ARC
  5
1CF
330
1F
100
AcDbEntity
  8
0
  6
Continuous
 62
     7
370
    30
100
AcDbCircle
 10
6.0784674826
 20
3.0409810855
 30
0.0
 40
0.2850000000000008
100
AcDbArc
 50
304.471815977
 51
356.5
  0
ARC
  5
1D0
330
1F
100
AcDbEntity
  8
0
  6
Continuous
 62
     7
370
    30
100
AcDbCircle
 10
6.2748697523
 20
2.7549126524
 30
0.0
 40
0.0620000000000007
100
AcDbArc
 50
124.471815977
 51
176.5
  0
ARC
  5
1D1
330
1F
100
AcDbEntity
  8
0
  6
Continuous
 62
     7
370
    30
100
AcDbCircle
 10
6.5373792043
 20
2.7388568865
 30
0.0
 40
0.3250000000000003
100
AcDbArc
 50
176.5
 51
276.5
  0
ARC
  5
1D2
330
1F
100
AcDbEntity
  8
0
  6
Continuous
 62
     7
370
    30
100
AcDbCircle
 10
6.5373792043
 20
2.7388568865
 30
0.0
 40
0.3750000000000003
100
AcDbArc
 50
176.5
 51
276.5
  0
ARC
  5
1D3
330
1F
100
AcDbEntity
  8
0
  6
Continuous
 62
     7
370
    30
100
AcDbCircle
 10
6.2391284608
 20
2.7570986834
 30
0.0
 40
0.07619191919192
100
AcDbArc
 50
119.5073447308
 51
176.5
  0
ARC
  5
1D4
330
1F
100
AcDbEntity
  8
0
  6
Continuous
 62
     7
370
    30
100
AcDbCircle
 10
6.0784674826
 20
3.0409810855
 30
0.0
 40
0.2500000000000005
100
AcDbArc
 50
299.5073447308
 51
356.5
  0
LINE
  5
1D5
330
1F
100
AcDbEntity
  8
0
  6
Continuous
 62
     7
370
    30
100
AcDbLine
 10
6.3536388643
 20
3.4448908396
 30
0.0
 11
6.3280011671
 21
3.0257189753
 31
0.0
  0
ARC
  5
1D6
330
1F
100
AcDbEntity
  8
0
  6
Continuous
 62
     7
370
    30
100
AcDbCircle
 10
6.3636201826
 20
3.444280378
 30
0.0
 40
0.0100000000000003
100
AcDbArc
 50
86.5
 51
176.5
  0
LINE
  5
1D7
330
1F
100
AcDbEntity
  8
0
  6
Continuous
 62
     7
370
    30
100
AcDbLine
 10
6.3717167155
 20
3.4538038166
 30
0.0
 11
6.3642306419
 21
3.4542617047
 31
0.0
  0
ARC
  5
1D8
330
1F
100
AcDbEntity
  8
0
  6
Continuous
 62
     7
370
    30
100
AcDbCircle
 10
6.3737618051
 20
3.4872413777
 30
0.0
 40
0.0335000000000002
100
AcDbArc
 50
266.5
 51
106.5
  0
LINE
  5
1D9
330
1F
100
AcDbEntity
  8
0
  6
Continuous
 62
     7
370
    30
100
AcDbLine
 10
6.3543067766
 20
3.5529205916
 30
0.0
 11
6.3642472884
 21
3.519361886
 31
0.0
  0
ARC
  5
1DA
330
1F
100
AcDbEntity
  8
0
  6
Continuous
 62
     7
370
    30
100
AcDbCircle
 10
6.3737618051
 20
3.4872413777
 30
0.0
 40
0.0685000000000001
100
AcDbArc
 50
287.0067954764
 51
106.5
  0
LINE
  5
1DB
330
1F
100
AcDbEntity
  8
0
  6
Continuous
 62
     7
370
    30
100
AcDbLine
 10
6.5798304246
 20
2.366267445
 30
0.0
 11
6.5741702567
 21
2.4159460244
 31
0.0
  0
ARC
  5
1DC
330
1F
100
AcDbEntity
  8
0
  6
Continuous
 62
     7
370
    30
100
AcDbCircle
 10
4.5168017229
 20
3.412174177
 30
0.0
 40
0.01
100
AcDbArc
 50
3.5
 51
72.9932045236
  0
LINE
  5
1DD
330
1F
100
AcDbEntity
  8
0
  6
Continuous
 62
     7
370
    30
100
AcDbLine
 10
4.5267830483
 20
3.4127847038
 30
0.0
 11
4.5505877266
 21
3.0235822866
 31
0.0
  0
ARC
  5
1DE
330
1F
100
AcDbEntity
  8
0
  6
Continuous
 62
     7
370
    30
100
AcDbCircle
 10
4.8350561276
 20
3.0409810855
 30
0.0
 40
0.285
100
AcDbArc
 50
183.5
 51
235.528184023
  0
ARC
  5
1DF
330
1F
100
AcDbEntity
  8
0
  6
Continuous
 62
     7
370
    30
100
AcDbCircle
 10
4.6386538578
 20
2.7549126524
 30
0.0
 40
0.0620000000000002
100
AcDbArc
 50
3.5
 51
55.528184023
  0
ARC
  5
1E0
330
1F
100
AcDbEntity
  8
0
  6
Continuous
 62
     7
370
    30
100
AcDbCircle
 10
4.3761444059
 20
2.7388568865
 30
0.0
 40
0.3250000000000005
100
AcDbArc
 50
263.5
 51
3.5
  0
ARC
  5
1E1
330
1F
100
AcDbEntity
  8
0
  6
Continuous
 62
     7
370
    30
100
AcDbCircle
 10
4.3761444059
 20
2.7388568865
 30
0.0
 40
0.3750000000000004
100
AcDbArc
 50
263.5
 51
3.5
  0
ARC
  5
1E2
330
1F
100
AcDbEntity
  8
0
  6
Continuous
 62
     7
370
    30
100
AcDbCircle
 10
4.6743951494
 20
2.7570986834
 30
0.0
 40
0.0761919191919193
100
AcDbArc
 50
3.5
 51
60.4926552692
  0
ARC
  5
1E3
330
1F
100
AcDbEntity
  8
0
  6
Continuous
 62
     7
370
    30
100
AcDbCircle
 10
4.8350561276
 20
3.0409810855
 30
0.0
 40
0.2500000000000001
100
AcDbArc
 50
183.5
 51
240.4926552692
  0
LINE
  5
1E4
330
1F
100
AcDbEntity
  8
0
  6
Continuous
 62
     7
370
    30
100
AcDbLine
 10
4.5855224431
 20
3.0257189753
 30
0.0
 11
4.5598847459
 21
3.4448908396
 31
0.0
  0
ARC
  5
1E5
330
1F
100
AcDbEntity
  8
0
  6
Continuous
 62
     7
370
    30
100
AcDbCircle
 10
4.5499034276
 20
3.444280378
 30
0.0
 40
0.01
100
AcDbArc
 50
3.5
 51
93.5
  0
LINE
  5
1E6
330
1F
100
AcDbEntity
  8
0
  6
Continuous
 62
     7
370
    30
100
AcDbLine
 10
4.5492929683
 20
3.4542617047
 30
0.0
 11
4.5418068947
 21
3.4538038166
 31
0.0
  0
ARC
  5
1E7
330
1F
100
AcDbEntity
  8
0
  6
Continuous
 62
     7
370
    30
100
AcDbCircle
 10
4.5397618051
 20
3.4872413777
 30
0.0
 40
0.0335000000000002
100
AcDbArc
 50
73.5
 51
273.5
  0
LINE
  5
1E8
330
1F
100
AcDbEntity
  8
0
  6
Continuous
 62
     7
370
    30
100
AcDbLine
 10
4.5492763218
 20
3.519361886
 30
0.0
 11
4.5592168336
 21
3.5529205916
 31
0.0
  0
ARC
  5
1E9
330
1F
100
AcDbEntity
  8
0
  6
Continuous
 62
     7
370
    30
100
AcDbCircle
 10
4.5397618051
 20
3.4872413777
 30
0.0
 40
0.0685000000000006
100
AcDbArc
 50
73.5
 51
252.9932045236
  0
LINE
  5
1EA
330
1F
100
AcDbEntity
  8
0
  6
Continuous
 62
     7
370
    30
100
AcDbLine
 10
4.3393533535
 20
2.4159460244
 30
0.0
 11
4.3336931855
 21
2.366267445
 31
0.0
  0
ARC
  5
1EB
330
1F
100
AcDbEntity
  8
0
  6
Continuous
 62
     7
370
    30
100
AcDbCircle
 10
4.1467218873
 20
3.412174177
 30
0.0
 40
0.0100000000000012
100
AcDbArc
 50
107.0067954764
 51
176.5
  0
LINE
  5
1EC
330
1F
100
AcDbEntity
  8
0
  6
Continuous
 62
     7
370
    30
100
AcDbLine
 10
4.1129359291
 20
3.0235822866
 30
0.0
 11
4.1367405341
 21
3.4127847038
 31
0.0
  0
ARC
  5
1ED
330
1F
100
AcDbEntity
  8
0
  6
Continuous
 62
     7
370
    30
100
AcDbCircle
 10
3.8284674826
 20
3.0409810855
 30
0.0
 40
0.2850000000000009
100
AcDbArc
 50
304.471815977
 51
356.5
  0
ARC
  5
1EE
330
1F
100
AcDbEntity
  8
0
  6
Continuous
 62
     7
370
    30
100
AcDbCircle
 10
4.0248697523
 20
2.7549126524
 30
0.0
 40
0.0620000000000002
100
AcDbArc
 50
124.471815977
 51
176.5
  0
ARC
  5
1EF
330
1F
100
AcDbEntity
  8
0
  6
Continuous
 62
     7
370
    30
100
AcDbCircle
 10
4.2873792043
 20
2.7388568865
 30
0.0
 40
0.3250000000000004
100
AcDbArc
 50
176.5
 51
276.5
  0
LINE
  5
1F0
330
1F
100
AcDbEntity
  8
0
  6
Continuous
 62
     7
370
    30
100
AcDbLine
 10
4.3298303968
 20
2.366267445
 30
0.0
 11
4.3241702289
 21
2.4159460244
 31
0.0
  0
ARC
  5
1F1
330
1F
100
AcDbEntity
  8
0
  6
Continuous
 62
     7
370
    30
100
AcDbCircle
 10
4.2873792043
 20
2.7388568865
 30
0.0
 40
0.3750000000000003
100
AcDbArc
 50
176.5
 51
276.5
  0
ARC
  5
1F2
330
1F
100
AcDbEntity
  8
0
  6
Continuous
 62
     7
370
    30
100
AcDbCircle
 10
3.9891284608
 20
2.7570986834
 30
0.0
 40
0.0761919191919196
100
AcDbArc
 50
119.5073447308
 51
176.5
  0
ARC
  5
1F3
330
1F
100
AcDbEntity
  8
0
  6
Continuous
 62
     7
370
    30
100
AcDbCircle
 10
3.8284674826
 20
3.0409810855
 30
0.0
 40
0.2500000000000004
100
AcDbArc
 50
299.5073447308
 51
356.5
  0
LINE
  5
1F4
330
1F
100
AcDbEntity
  8
0
  6
Continuous
 62
     7
370
    30
100
AcDbLine
 10
4.1036388365
 20
3.4448908396
 30
0.0
 11
4.0780012127
 21
3.0257189753
 31
0.0
  0
ARC
  5
1F5
330
1F
100
AcDbEntity
  8
0
  6
Continuous
 62
     7
370
    30
100
AcDbCircle
 10
4.1136201826
 20
3.444280378
 30
0.0
 40
0.0100000000000003
100
AcDbArc
 50
86.5
 51
176.5
  0
LINE
  5
1F6
330
1F
100
AcDbEntity
  8
0
  6
Continuous
 62
     7
370
    30
100
AcDbLine
 10
4.1217166143
 20
3.4538038166
 30
0.0
 11
4.1142306875
 21
3.4542617047
 31
0.0
  0
ARC
  5
1F7
330
1F
100
AcDbEntity
  8
0
  6
Continuous
 62
     7
370
    30
100
AcDbCircle
 10
4.1237618051
 20
3.4872413777
 30
0.0
 40
0.0335000000000002
100
AcDbArc
 50
266.5
 51
106.5
  0
LINE
  5
1F8
330
1F
100
AcDbEntity
  8
0
  6
Continuous
 62
     7
370
    30
100
AcDbLine
 10
4.1043067488
 20
3.5529205916
 30
0.0
 11
4.1142472606
 21
3.519361886
 31
0.0
  0
ARC
  5
1F9
330
1F
100
AcDbEntity
  8
0
  6
Continuous
 62
     7
370
    30
100
AcDbCircle
 10
4.1237618051
 20
3.4872413777
 30
0.0
 40
0.0685000000000006
100
AcDbArc
 50
287.0067954764
 51
106.5
  0
ARC
  5
1FA
330
1F
100
AcDbEntity
  8
0
  6
Continuous
 62
     7
370
    30
100
AcDbCircle
 10
6.7668017229
 20
3.412174177
 30
0.0
 40
0.0100000000000004
100
AcDbArc
 50
3.5
 51
72.9932045236
  0
LINE
  5
1FB
330
1F
100
AcDbEntity
  8
0
  6
Continuous
 62
     7
370
    30
100
AcDbLine
 10
6.7767830761
 20
3.4127847038
 30
0.0
 11
6.8005876811
 21
3.0235822866
 31
0.0
  0
ARC
  5
1FC
330
1F
100
AcDbEntity
  8
0
  6
Continuous
 62
     7
370
    30
100
AcDbCircle
 10
7.0850561276
 20
3.0409810855
 30
0.0
 40
0.285
100
AcDbArc
 50
183.5
 51
235.528184023
  0
ARC
  5
1FD
330
1F
100
AcDbEntity
  8
0
  6
Continuous
 62
     7
370
    30
100
AcDbCircle
 10
6.8886538578
 20
2.7549126524
 30
0.0
 40
0.0619999999999994
100
AcDbArc
 50
3.5
 51
55.528184023
  0
ARC
  5
1FE
330
1F
100
AcDbEntity
  8
0
  6
Continuous
 62
     7
370
    30
100
AcDbCircle
 10
6.6261444059
 20
2.7388568865
 30
0.0
 40
0.3250000000000002
100
AcDbArc
 50
263.5
 51
3.5
  0
LINE
  5
1FF
330
1F
100
AcDbEntity
  8
0
  6
Continuous
 62
     7
370
    30
100
AcDbLine
 10
6.5893533813
 20
2.4159460244
 30
0.0
 11
6.5836932134
 21
2.366267445
 31
0.0
  0
ARC
  5
200
330
1F
100
AcDbEntity
  8
0
  6
Continuous
 62
     7
370
    30
100
AcDbCircle
 10
6.6261444059
 20
2.7388568865
 30
0.0
 40
0.3749999999999996
100
AcDbArc
 50
263.5
 51
3.5
  0
ARC
  5
201
330
1F
100
AcDbEntity
  8
0
  6
Continuous
 62
     7
370
    30
100
AcDbCircle
 10
6.9243951494
 20
2.7570986834
 30
0.0
 40
0.0761919191919191
100
AcDbArc
 50
3.5
 51
60.4926552692
  0
ARC
  5
202
330
1F
100
AcDbEntity
  8
0
  6
Continuous
 62
     7
370
    30
100
AcDbCircle
 10
7.0850561276
 20
3.0409810855
 30
0.0
 40
0.2499999999999997
100
AcDbArc
 50
183.5
 51
240.4926552692
  0
LINE
  5
203
330
1F
100
AcDbEntity
  8
0
  6
Continuous
 62
     7
370
    30
100
AcDbLine
 10
6.8355223975
 20
3.0257189753
 30
0.0
 11
6.8098847737
 21
3.4448908396
 31
0.0
  0
ARC
  5
204
330
1F
100
AcDbEntity
  8
0
  6
Continuous
 62
     7
370
    30
100
AcDbCircle
 10
6.7999034276
 20
3.444280378
 30
0.0
 40
0.0099999999999999
100
AcDbArc
 50
3.5
 51
93.5
  0
LINE
  5
205
330
1F
100
AcDbEntity
  8
0
  6
Continuous
 62
     7
370
    30
100
AcDbLine
 10
6.7992929227
 20
3.4542617047
 30
0.0
 11
6.7918069959
 21
3.4538038166
 31
0.0
  0
LINE
  5
206
330
1F
100
AcDbEntity
  8
0
  6
Continuous
 62
     7
370
    30
100
AcDbLine
 10
6.7992763496
 20
3.519361886
 30
0.0
 11
6.8092168614
 21
3.5529205916
 31
0.0
  0
ARC
  5
207
330
1F
100
AcDbEntity
  8
0
  6
Continuous
 62
     7
370
    30
100
AcDbCircle
 10
6.7897618051
 20
3.4872413777
 30
0.0
 40
0.0685000000000003
100
AcDbArc
 50
73.5
 51
252.9932045236
  0
ARC
  5
208
330
1F
100
AcDbEntity
  8
0
  6
Continuous
 62
     7
370
    30
100
AcDbCircle
 10
6.7897618051
 20
3.4872413777
 30
0.0
 40
0.0335000000000004
100
AcDbArc
 50
73.5
 51
273.5
  0
LINE
  5
209
330
1F
100
AcDbEntity
  8
0
  6
Continuous
 62
     7
370
    30
100
AcDbLine
 10
6.7542617896
 20
3.2502413415
 30
0.0
 11
6.4092617751
 21
3.2502413415
 31
0.0
  0
ARC
  5
20A
330
1F
100
AcDbEntity
  8
0
  6
Continuous
 62
     7
370
    30
100
AcDbCircle
 10
6.3737618051
 20
3.4872413777
 30
0.0
 40
0.0710000000000085
100
AcDbArc
 50
307.5815576188
 51
113.2698239585
  0
LINE
  5
20B
330
1F
100
AcDbEntity
  8
0
  6
Continuous
 62
     7
370
    30
100
AcDbLine
 10
6.3317618037
 20
3.5632414057
 30
0.0
 11
6.3317618037
 21
3.5616524374
 31
0.0
  0
LINE
  5
20C
330
1F
100
AcDbEntity
  8
0
  6
Continuous
 62
     7
370
    30
100
AcDbLine
 10
6.5081611192
 20
3.6152647914
 30
0.0
 11
6.4908810522
 21
3.6252413828
 31
0.0
  0
LINE
  5
20D
330
1F
100
AcDbEntity
  8
0
  6
Continuous
 62
     7
370
    30
100
AcDbLine
 10
6.5081611192
 20
3.5800412917
 30
0.0
 11
6.4878007211
 21
3.5917963425
 31
0.0
  0
LINE
  5
20E
330
1F
100
AcDbEntity
  8
0
  6
Continuous
 62
     7
370
    30
100
AcDbLine
 10
6.5081611192
 20
3.5448179386
 30
0.0
 11
6.4878007211
 21
3.5565729894
 31
0.0
  0
LINE
  5
20F
330
1F
100
AcDbEntity
  8
0
  6
Continuous
 62
     7
370
    30
100
AcDbLine
 10
6.5081611192
 20
3.5389610196
 30
0.0
 11
6.5081611192
 21
3.5448179386
 31
0.0
  0
LINE
  5
210
330
1F
100
AcDbEntity
  8
0
  6
Continuous
 62
     7
370
    30
100
AcDbLine
 10
6.4878007211
 20
3.5213494897
 30
0.0
 11
6.4878007211
 21
3.5272059687
 31
0.0
  0
LINE
  5
211
330
1F
100
AcDbEntity
  8
0
  6
Continuous
 62
     7
370
    30
100
AcDbLine
 10
6.5081611192
 20
3.5037376665
 30
0.0
 11
6.5081611192
 21
3.5095944388
 31
0.0
  0
LINE
  5
212
330
1F
100
AcDbEntity
  8
0
  6
Continuous
 62
     7
370
    30
100
AcDbLine
 10
6.4878007211
 20
3.4861261366
 30
0.0
 11
6.4878007211
 21
3.4919826156
 31
0.0
  0
LINE
  5
213
330
1F
100
AcDbEntity
  8
0
  6
Continuous
 62
     7
370
    30
100
AcDbLine
 10
6.5081611192
 20
3.4685141667
 30
0.0
 11
6.5081611192
 21
3.4743710857
 31
0.0
  0
LINE
  5
214
330
1F
100
AcDbEntity
  8
0
  6
Continuous
 62
     7
370
    30
100
AcDbLine
 10
6.4878007211
 20
3.4509026368
 30
0.0
 11
6.4878007211
 21
3.4567591158
 31
0.0
  0
LINE
  5
215
330
1F
100
AcDbEntity
  8
0
  6
Continuous
 62
     7
370
    30
100
AcDbLine
 10
6.5081611192
 20
3.4332908136
 30
0.0
 11
6.5081611192
 21
3.439147586
 31
0.0
  0
LINE
  5
216
330
1F
100
AcDbEntity
  8
0
  6
Continuous
 62
     7
370
    30
100
AcDbLine
 10
6.4878007211
 20
3.4156792837
 30
0.0
 11
6.4878007211
 21
3.4215357627
 31
0.0
  0
LINE
  5
217
330
1F
100
AcDbEntity
  8
0
  6
Continuous
 62
     7
370
    30
100
AcDbLine
 10
6.5081611192
 20
3.3980674605
 30
0.0
 11
6.5081611192
 21
3.4039242329
 31
0.0
  0
LINE
  5
218
330
1F
100
AcDbEntity
  8
0
  6
Continuous
 62
     7
370
    30
100
AcDbLine
 10
6.4878007211
 20
3.380455784
 30
0.0
 11
6.4878007211
 21
3.386312263
 31
0.0
  0
ARC
  5
219
330
1F
100
AcDbEntity
  8
0
  6
Continuous
 62
     7
370
    30
100
AcDbCircle
 10
6.4997618051
 20
3.3412413777
 30
0.0
 40
0.0310000000000006
100
AcDbArc
 50
104.7376174516
 51
270.0
  0
ARC
  5
21A
330
1F
100
AcDbEntity
  8
0
  6
Continuous
 62
     7
370
    30
100
AcDbCircle
 10
6.6637618051
 20
3.3412413777
 30
0.0
 40
0.0310000000000006
100
AcDbArc
 50
270.0
 51
84.5504773049
  0
LINE
  5
21B
330
1F
100
AcDbEntity
  8
0
  6
Continuous
 62
     7
370
    30
100
AcDbLine
 10
6.6553308391
 20
3.3786686713
 30
0.0
 11
6.6667058077
 21
3.3721013071
 31
0.0
  0
LINE
  5
21C
330
1F
100
AcDbEntity
  8
0
  6
Continuous
 62
     7
370
    30
100
AcDbLine
 10
6.6756919706
 20
3.3962892944
 30
0.0
 11
6.6553308391
 21
3.3845338035
 31
0.0
  0
LINE
  5
21D
330
1F
100
AcDbEntity
  8
0
  6
Continuous
 62
     7
370
    30
100
AcDbLine
 10
6.6553316458
 20
3.4139008243
 30
0.0
 11
6.6756919706
 21
3.4021457734
 31
0.0
  0
LINE
  5
21E
330
1F
100
AcDbEntity
  8
0
  6
Continuous
 62
     7
370
    30
100
AcDbLine
 10
6.6756919706
 20
3.4315126475
 30
0.0
 11
6.6553316458
 21
3.4197575966
 31
0.0
  0
LINE
  5
21F
330
1F
100
AcDbEntity
  8
0
  6
Continuous
 62
     7
370
    30
100
AcDbLine
 10
6.6553316458
 20
3.449124324
 30
0.0
 11
6.6756919706
 21
3.4373692732
 31
0.0
  0
LINE
  5
220
330
1F
100
AcDbEntity
  8
0
  6
Continuous
 62
     7
370
    30
100
AcDbLine
 10
6.6756919706
 20
3.4667361472
 30
0.0
 11
6.6553316458
 21
3.4549810964
 31
0.0
  0
LINE
  5
221
330
1F
100
AcDbEntity
  8
0
  6
Continuous
 62
     7
370
    30
100
AcDbLine
 10
6.6553316458
 20
3.4843476771
 30
0.0
 11
6.6756919706
 21
3.4725926263
 31
0.0
  0
LINE
  5
222
330
1F
100
AcDbEntity
  8
0
  6
Continuous
 62
     7
370
    30
100
AcDbLine
 10
6.6553316458
 20
3.4902044495
 30
0.0
 11
6.6553316458
 21
3.4843476771
 31
0.0
  0
LINE
  5
223
330
1F
100
AcDbEntity
  8
0
  6
Continuous
 62
     7
370
    30
100
AcDbLine
 10
6.6756919706
 20
3.5019595003
 30
0.0
 11
6.6553316458
 21
3.4902044495
 31
0.0
  0
LINE
  5
224
330
1F
100
AcDbEntity
  8
0
  6
Continuous
 62
     7
370
    30
100
AcDbLine
 10
6.6553316458
 20
3.5195711769
 30
0.0
 11
6.6756919706
 21
3.5078159794
 31
0.0
  0
LINE
  5
225
330
1F
100
AcDbEntity
  8
0
  6
Continuous
 62
     7
370
    30
100
AcDbLine
 10
6.6756919706
 20
3.5371830001
 30
0.0
 11
6.6553316458
 21
3.5254279492
 31
0.0
  0
LINE
  5
226
330
1F
100
AcDbEntity
  8
0
  6
Continuous
 62
     7
370
    30
100
AcDbLine
 10
6.6553316458
 20
3.55479453
 30
0.0
 11
6.6756919706
 21
3.5430394791
 31
0.0
  0
LINE
  5
227
330
1F
100
AcDbEntity
  8
0
  6
Continuous
 62
     7
370
    30
100
AcDbLine
 10
6.6756919706
 20
3.5724063532
 30
0.0
 11
6.6553316458
 21
3.5606513023
 31
0.0
  0
LINE
  5
228
330
1F
100
AcDbEntity
  8
0
  6
Continuous
 62
     7
370
    30
100
AcDbLine
 10
6.6553316458
 20
3.5900178831
 30
0.0
 11
6.6756919706
 21
3.5782628322
 31
0.0
  0
LINE
  5
229
330
1F
100
AcDbEntity
  8
0
  6
Continuous
 62
     7
370
    30
100
AcDbLine
 10
6.6756919706
 20
3.607629853
 30
0.0
 11
6.6553316458
 21
3.5958748021
 31
0.0
  0
LINE
  5
22A
330
1F
100
AcDbEntity
  8
0
  6
Continuous
 62
     7
370
    30
100
AcDbLine
 10
6.6553316458
 20
3.6252413828
 30
0.0
 11
6.6756919706
 21
3.613486332
 31
0.0
  0
LINE
  5
22B
330
1F
100
AcDbEntity
  8
0
  6
Continuous
 62
     7
370
    30
100
AcDbLine
 10
6.7697617839
 20
3.6252413828
 30
0.0
 11
6.6553316458
 21
3.6252413828
 31
0.0
  0
ARC
  5
22C
330
1F
100
AcDbEntity
  8
0
  6
Continuous
 62
     7
370
    30
100
AcDbCircle
 10
6.7697618051
 20
3.5632413777
 30
0.0
 40
0.0620000000000038
100
AcDbArc
 50
0.0
 51
90.0
  0
LINE
  5
22D
330
1F
100
AcDbEntity
  8
0
  6
Continuous
 62
     7
370
    30
100
AcDbLine
 10
6.831761761
 20
3.5616524374
 30
0.0
 11
6.831761761
 21
3.5632414057
 31
0.0
  0
LINE
  5
22E
330
1F
100
AcDbEntity
  8
0
  6
Continuous
 62
     7
370
    30
100
AcDbLine
 10
6.4878007211
 20
3.5976528216
 30
0.0
 11
6.5081611192
 21
3.6094078724
 31
0.0
  0
LINE
  5
22F
330
1F
100
AcDbEntity
  8
0
  6
Continuous
 62
     7
370
    30
100
AcDbLine
 10
6.4878007211
 20
3.5624294685
 30
0.0
 11
6.5081611192
 21
3.5741845193
 31
0.0
  0
LINE
  5
230
330
1F
100
AcDbEntity
  8
0
  6
Continuous
 62
     7
370
    30
100
AcDbLine
 10
6.4092617751
 20
3.4151251835
 30
0.0
 11
6.4092617751
 21
3.2502413415
 31
0.0
  0
ARC
  5
231
330
1F
100
AcDbEntity
  8
0
  6
Continuous
 62
     7
370
    30
100
AcDbCircle
 10
6.4292618051
 20
3.4151251521
 30
0.0
 40
0.0200000000000005
100
AcDbArc
 50
127.5815576188
 51
180.0
  0
ARC
  5
232
330
1F
100
AcDbEntity
  8
0
  6
Continuous
 62
     7
370
    30
100
AcDbCircle
 10
6.3417618051
 20
3.5616523984
 30
0.0
 40
0.0099999999999953
100
AcDbArc
 50
180.0
 51
293.2698239585
  0
ARC
  5
233
330
1F
100
AcDbEntity
  8
0
  6
Continuous
 62
     7
370
    30
100
AcDbCircle
 10
6.3937618051
 20
3.5632413777
 30
0.0
 40
0.0620000000000056
100
AcDbArc
 50
90.0
 51
180.0
  0
LINE
  5
234
330
1F
100
AcDbEntity
  8
0
  6
Continuous
 62
     7
370
    30
100
AcDbLine
 10
6.5081611192
 20
3.6094078724
 30
0.0
 11
6.5081611192
 21
3.6152647914
 31
0.0
  0
LINE
  5
235
330
1F
100
AcDbEntity
  8
0
  6
Continuous
 62
     7
370
    30
100
AcDbLine
 10
6.4878007211
 20
3.5917963425
 30
0.0
 11
6.4878007211
 21
3.5976528216
 31
0.0
  0
LINE
  5
236
330
1F
100
AcDbEntity
  8
0
  6
Continuous
 62
     7
370
    30
100
AcDbLine
 10
6.5081611192
 20
3.5741845193
 30
0.0
 11
6.5081611192
 21
3.5800412917
 31
0.0
  0
LINE
  5
237
330
1F
100
AcDbEntity
  8
0
  6
Continuous
 62
     7
370
    30
100
AcDbLine
 10
6.4878007211
 20
3.5565729894
 30
0.0
 11
6.4878007211
 21
3.5624294685
 31
0.0
  0
LINE
  5
238
330
1F
100
AcDbEntity
  8
0
  6
Continuous
 62
     7
370
    30
100
AcDbLine
 10
6.4878007211
 20
3.386312263
 30
0.0
 11
6.5081611192
 21
3.3980674605
 31
0.0
  0
LINE
  5
239
330
1F
100
AcDbEntity
  8
0
  6
Continuous
 62
     7
370
    30
100
AcDbLine
 10
6.6756919706
 20
3.5078159794
 30
0.0
 11
6.6756919706
 21
3.5019595003
 31
0.0
  0
LINE
  5
23A
330
1F
100
AcDbEntity
  8
0
  6
Continuous
 62
     7
370
    30
100
AcDbLine
 10
6.6553316458
 20
3.5254279492
 30
0.0
 11
6.6553316458
 21
3.5195711769
 31
0.0
  0
LINE
  5
23B
330
1F
100
AcDbEntity
  8
0
  6
Continuous
 62
     7
370
    30
100
AcDbLine
 10
6.6756919706
 20
3.5430394791
 30
0.0
 11
6.6756919706
 21
3.5371830001
 31
0.0
  0
LINE
  5
23C
330
1F
100
AcDbEntity
  8
0
  6
Continuous
 62
     7
370
    30
100
AcDbLine
 10
6.6553316458
 20
3.5606513023
 30
0.0
 11
6.6553316458
 21
3.55479453
 31
0.0
  0
LINE
  5
23D
330
1F
100
AcDbEntity
  8
0
  6
Continuous
 62
     7
370
    30
100
AcDbLine
 10
6.6756919706
 20
3.5782628322
 30
0.0
 11
6.6756919706
 21
3.5724063532
 31
0.0
  0
LINE
  5
23E
330
1F
100
AcDbEntity
  8
0
  6
Continuous
 62
     7
370
    30
100
AcDbLine
 10
6.6553316458
 20
3.5958748021
 30
0.0
 11
6.6553316458
 21
3.5900178831
 31
0.0
  0
LINE
  5
23F
330
1F
100
AcDbEntity
  8
0
  6
Continuous
 62
     7
370
    30
100
AcDbLine
 10
6.6756919706
 20
3.613486332
 30
0.0
 11
6.6756919706
 21
3.607629853
 31
0.0
  0
LINE
  5
240
330
1F
100
AcDbEntity
  8
0
  6
Continuous
 62
     7
370
    30
100
AcDbLine
 10
6.4908810522
 20
3.6252413828
 30
0.0
 11
6.3937617808
 21
3.6252413828
 31
0.0
  0
LINE
  5
241
330
1F
100
AcDbEntity
  8
0
  6
Continuous
 62
     7
370
    30
100
AcDbLine
 10
6.4878007211
 20
3.5272059687
 30
0.0
 11
6.5081611192
 21
3.5389610196
 31
0.0
  0
LINE
  5
242
330
1F
100
AcDbEntity
  8
0
  6
Continuous
 62
     7
370
    30
100
AcDbLine
 10
6.5081611192
 20
3.4039242329
 30
0.0
 11
6.4878007211
 21
3.4156792837
 31
0.0
  0
LINE
  5
243
330
1F
100
AcDbEntity
  8
0
  6
Continuous
 62
     7
370
    30
100
AcDbLine
 10
6.492401968
 20
3.3777992413
 30
0.0
 11
6.4878007211
 21
3.380455784
 31
0.0
  0
ARC
  5
244
330
1F
100
AcDbEntity
  8
0
  6
Continuous
 62
     7
370
    30
100
AcDbCircle
 10
6.4827288702
 20
3.3752633999
 30
0.0
 40
0.0100000000000088
100
AcDbArc
 50
336.1596651702
 51
14.6901250941
  0
LINE
  5
245
330
1F
100
AcDbEntity
  8
0
  6
Continuous
 62
     7
370
    30
100
AcDbLine
 10
6.6637618017
 20
3.3102413951
 30
0.0
 11
6.4997618363
 21
3.3102413951
 31
0.0
  0
LINE
  5
246
330
1F
100
AcDbEntity
  8
0
  6
Continuous
 62
     7
370
    30
100
AcDbLine
 10
6.6553308391
 20
3.3845338035
 30
0.0
 11
6.6553308391
 21
3.3786686713
 31
0.0
  0
LINE
  5
247
330
1F
100
AcDbEntity
  8
0
  6
Continuous
 62
     7
370
    30
100
AcDbLine
 10
6.6756919706
 20
3.4021457734
 30
0.0
 11
6.6756919706
 21
3.3962892944
 31
0.0
  0
LINE
  5
248
330
1F
100
AcDbEntity
  8
0
  6
Continuous
 62
     7
370
    30
100
AcDbLine
 10
6.6553316458
 20
3.4197575966
 30
0.0
 11
6.6553316458
 21
3.4139008243
 31
0.0
  0
LINE
  5
249
330
1F
100
AcDbEntity
  8
0
  6
Continuous
 62
     7
370
    30
100
AcDbLine
 10
6.6756919706
 20
3.4373692732
 30
0.0
 11
6.6756919706
 21
3.4315126475
 31
0.0
  0
LINE
  5
24A
330
1F
100
AcDbEntity
  8
0
  6
Continuous
 62
     7
370
    30
100
AcDbLine
 10
6.6553316458
 20
3.4549810964
 30
0.0
 11
6.6553316458
 21
3.449124324
 31
0.0
  0
LINE
  5
24B
330
1F
100
AcDbEntity
  8
0
  6
Continuous
 62
     7
370
    30
100
AcDbLine
 10
6.6756919706
 20
3.4725926263
 30
0.0
 11
6.6756919706
 21
3.4667361472
 31
0.0
  0
ARC
  5
24C
330
1F
100
AcDbEntity
  8
0
  6
Continuous
 62
     7
370
    30
100
AcDbCircle
 10
6.8217618051
 20
3.5616523984
 30
0.0
 40
0.00999999999999
100
AcDbArc
 50
246.7301760415
 51
360.0
  0
ARC
  5
24D
330
1F
100
AcDbEntity
  8
0
  6
Continuous
 62
     7
370
    30
100
AcDbCircle
 10
6.7897618051
 20
3.4872413777
 30
0.0
 40
0.0710000000000111
100
AcDbArc
 50
66.7301760415
 51
232.4184423813
  0
LINE
  5
24E
330
1F
100
AcDbEntity
  8
0
  6
Continuous
 62
     7
370
    30
100
AcDbLine
 10
6.7542617896
 20
3.2502413415
 30
0.0
 11
6.7542617896
 21
3.4151251835
 31
0.0
  0
LINE
  5
24F
330
1F
100
AcDbEntity
  8
0
  6
Continuous
 62
     7
370
    30
100
AcDbLine
 10
6.4878007211
 20
3.4215357627
 30
0.0
 11
6.5081611192
 21
3.4332908136
 31
0.0
  0
ARC
  5
250
330
1F
100
AcDbEntity
  8
0
  6
Continuous
 62
     7
370
    30
100
AcDbCircle
 10
6.7342618051
 20
3.4151251521
 30
0.0
 40
0.0199999999999996
100
AcDbArc
 50
0.0
 51
52.4184423813
  0
LINE
  5
251
330
1F
100
AcDbEntity
  8
0
  6
Continuous
 62
     7
370
    30
100
AcDbLine
 10
6.5081611192
 20
3.5095944388
 30
0.0
 11
6.4878007211
 21
3.5213494897
 31
0.0
  0
LINE
  5
252
330
1F
100
AcDbEntity
  8
0
  6
Continuous
 62
     7
370
    30
100
AcDbLine
 10
6.4878007211
 20
3.4919826156
 30
0.0
 11
6.5081611192
 21
3.5037376665
 31
0.0
  0
LINE
  5
253
330
1F
100
AcDbEntity
  8
0
  6
Continuous
 62
     7
370
    30
100
AcDbLine
 10
6.5081611192
 20
3.4743710857
 30
0.0
 11
6.4878007211
 21
3.4861261366
 31
0.0
  0
LINE
  5
254
330
1F
100
AcDbEntity
  8
0
  6
Continuous
 62
     7
370
    30
100
AcDbLine
 10
6.5081611192
 20
3.439147586
 30
0.0
 11
6.4878007211
 21
3.4509026368
 31
0.0
  0
LINE
  5
255
330
1F
100
AcDbEntity
  8
0
  6
Continuous
 62
     7
370
    30
100
AcDbLine
 10
6.4878007211
 20
3.4567591158
 30
0.0
 11
6.5081611192
 21
3.4685141667
 31
0.0
  0
ARC
  5
256
330
1F
100
AcDbEntity
  8
0
  6
Continuous
 62
     7
370
    30
100
AcDbCircle
 10
4.5717618051
 20
3.5616523984
 30
0.0
 40
0.0099999999999902
100
AcDbArc
 50
246.7301760415
 51
360.0
  0
ARC
  5
257
330
1F
100
AcDbEntity
  8
0
  6
Continuous
 62
     7
370
    30
100
AcDbCircle
 10
4.5397618051
 20
3.4872413777
 30
0.0
 40
0.0710000000000108
100
AcDbArc
 50
66.7301760415
 51
232.4184423813
  0
LINE
  5
258
330
1F
100
AcDbEntity
  8
0
  6
Continuous
 62
     7
370
    30
100
AcDbLine
 10
4.5042618351
 20
3.2502413415
 30
0.0
 11
4.1592618206
 21
3.2502413415
 31
0.0
  0
LINE
  5
259
330
1F
100
AcDbEntity
  8
0
  6
Continuous
 62
     7
370
    30
100
AcDbLine
 10
4.0817618492
 20
3.5632414057
 30
0.0
 11
4.0817618492
 21
3.5616524374
 31
0.0
  0
ARC
  5
25A
330
1F
100
AcDbEntity
  8
0
  6
Continuous
 62
     7
370
    30
100
AcDbCircle
 10
4.1437618051
 20
3.5632413777
 30
0.0
 40
0.0620000000000038
100
AcDbArc
 50
90.0
 51
180.0
  0
LINE
  5
25B
330
1F
100
AcDbEntity
  8
0
  6
Continuous
 62
     7
370
    30
100
AcDbLine
 10
4.2408810977
 20
3.6252413828
 30
0.0
 11
4.1437618263
 21
3.6252413828
 31
0.0
  0
LINE
  5
25C
330
1F
100
AcDbEntity
  8
0
  6
Continuous
 62
     7
370
    30
100
AcDbLine
 10
4.2378007666
 20
3.4509026368
 30
0.0
 11
4.2378007666
 21
3.4567591158
 31
0.0
  0
LINE
  5
25D
330
1F
100
AcDbEntity
  8
0
  6
Continuous
 62
     7
370
    30
100
AcDbLine
 10
4.2581610914
 20
3.439147586
 30
0.0
 11
4.2378007666
 21
3.4509026368
 31
0.0
  0
LINE
  5
25E
330
1F
100
AcDbEntity
  8
0
  6
Continuous
 62
     7
370
    30
100
AcDbLine
 10
4.2378007666
 20
3.4215357627
 30
0.0
 11
4.2581610914
 21
3.4332908136
 31
0.0
  0
LINE
  5
25F
330
1F
100
AcDbEntity
  8
0
  6
Continuous
 62
     7
370
    30
100
AcDbLine
 10
4.2378007666
 20
3.4156792837
 30
0.0
 11
4.2378007666
 21
3.4215357627
 31
0.0
  0
LINE
  5
260
330
1F
100
AcDbEntity
  8
0
  6
Continuous
 62
     7
370
    30
100
AcDbLine
 10
4.2581610914
 20
3.4039242329
 30
0.0
 11
4.2378007666
 21
3.4156792837
 31
0.0
  0
LINE
  5
261
330
1F
100
AcDbEntity
  8
0
  6
Continuous
 62
     7
370
    30
100
AcDbLine
 10
4.2581610914
 20
3.3980674605
 30
0.0
 11
4.2581610914
 21
3.4039242329
 31
0.0
  0
LINE
  5
262
330
1F
100
AcDbEntity
  8
0
  6
Continuous
 62
     7
370
    30
100
AcDbLine
 10
4.2378007666
 20
3.386312263
 30
0.0
 11
4.2581610914
 21
3.3980674605
 31
0.0
  0
LINE
  5
263
330
1F
100
AcDbEntity
  8
0
  6
Continuous
 62
     7
370
    30
100
AcDbLine
 10
4.2378007666
 20
3.380455784
 30
0.0
 11
4.2378007666
 21
3.386312263
 31
0.0
  0
LINE
  5
264
330
1F
100
AcDbEntity
  8
0
  6
Continuous
 62
     7
370
    30
100
AcDbLine
 10
4.2424020135
 20
3.3777992413
 30
0.0
 11
4.2378007666
 21
3.380455784
 31
0.0
  0
ARC
  5
265
330
1F
100
AcDbEntity
  8
0
  6
Continuous
 62
     7
370
    30
100
AcDbCircle
 10
4.2327288702
 20
3.3752633999
 30
0.0
 40
0.0100000000000088
100
AcDbArc
 50
336.1596651702
 51
14.6901250941
  0
ARC
  5
266
330
1F
100
AcDbEntity
  8
0
  6
Continuous
 62
     7
370
    30
100
AcDbCircle
 10
4.2497618051
 20
3.3412413777
 30
0.0
 40
0.0310000000000006
100
AcDbArc
 50
104.7376174516
 51
270.0
  0
LINE
  5
267
330
1F
100
AcDbEntity
  8
0
  6
Continuous
 62
     7
370
    30
100
AcDbLine
 10
4.4137617739
 20
3.3102413951
 30
0.0
 11
4.2497618085
 21
3.3102413951
 31
0.0
  0
ARC
  5
268
330
1F
100
AcDbEntity
  8
0
  6
Continuous
 62
     7
370
    30
100
AcDbCircle
 10
4.4137618051
 20
3.3412413777
 30
0.0
 40
0.0310000000000006
100
AcDbArc
 50
270.0
 51
84.5504773049
  0
LINE
  5
269
330
1F
100
AcDbEntity
  8
0
  6
Continuous
 62
     7
370
    30
100
AcDbLine
 10
4.4053308113
 20
3.3786686713
 30
0.0
 11
4.4167058532
 21
3.3721013071
 31
0.0
  0
LINE
  5
26A
330
1F
100
AcDbEntity
  8
0
  6
Continuous
 62
     7
370
    30
100
AcDbLine
 10
4.4053308113
 20
3.3845338035
 30
0.0
 11
4.4053308113
 21
3.3786686713
 31
0.0
  0
LINE
  5
26B
330
1F
100
AcDbEntity
  8
0
  6
Continuous
 62
     7
370
    30
100
AcDbLine
 10
4.4256920161
 20
3.4021457734
 30
0.0
 11
4.4256920161
 21
3.3962892944
 31
0.0
  0
LINE
  5
26C
330
1F
100
AcDbEntity
  8
0
  6
Continuous
 62
     7
370
    30
100
AcDbLine
 10
4.405331618
 20
3.4197575966
 30
0.0
 11
4.405331618
 21
3.4139008243
 31
0.0
  0
LINE
  5
26D
330
1F
100
AcDbEntity
  8
0
  6
Continuous
 62
     7
370
    30
100
AcDbLine
 10
4.4256920161
 20
3.4315126475
 30
0.0
 11
4.405331618
 21
3.4197575966
 31
0.0
  0
LINE
  5
26E
330
1F
100
AcDbEntity
  8
0
  6
Continuous
 62
     7
370
    30
100
AcDbLine
 10
4.4256920161
 20
3.4373692732
 30
0.0
 11
4.4256920161
 21
3.4315126475
 31
0.0
  0
LINE
  5
26F
330
1F
100
AcDbEntity
  8
0
  6
Continuous
 62
     7
370
    30
100
AcDbLine
 10
4.405331618
 20
3.4549810964
 30
0.0
 11
4.405331618
 21
3.449124324
 31
0.0
  0
LINE
  5
270
330
1F
100
AcDbEntity
  8
0
  6
Continuous
 62
     7
370
    30
100
AcDbLine
 10
4.4256920161
 20
3.4725926263
 30
0.0
 11
4.4256920161
 21
3.4667361472
 31
0.0
  0
LINE
  5
271
330
1F
100
AcDbEntity
  8
0
  6
Continuous
 62
     7
370
    30
100
AcDbLine
 10
4.4256920161
 20
3.5078159794
 30
0.0
 11
4.4256920161
 21
3.5019595003
 31
0.0
  0
LINE
  5
272
330
1F
100
AcDbEntity
  8
0
  6
Continuous
 62
     7
370
    30
100
AcDbLine
 10
4.405331618
 20
3.5254279492
 30
0.0
 11
4.405331618
 21
3.5195711769
 31
0.0
  0
LINE
  5
273
330
1F
100
AcDbEntity
  8
0
  6
Continuous
 62
     7
370
    30
100
AcDbLine
 10
4.4256920161
 20
3.5430394791
 30
0.0
 11
4.4256920161
 21
3.5371830001
 31
0.0
  0
LINE
  5
274
330
1F
100
AcDbEntity
  8
0
  6
Continuous
 62
     7
370
    30
100
AcDbLine
 10
4.4256920161
 20
3.5782628322
 30
0.0
 11
4.4256920161
 21
3.5724063532
 31
0.0
  0
LINE
  5
275
330
1F
100
AcDbEntity
  8
0
  6
Continuous
 62
     7
370
    30
100
AcDbLine
 10
4.405331618
 20
3.5958748021
 30
0.0
 11
4.405331618
 21
3.5900178831
 31
0.0
  0
LINE
  5
276
330
1F
100
AcDbEntity
  8
0
  6
Continuous
 62
     7
370
    30
100
AcDbLine
 10
4.4256920161
 20
3.613486332
 30
0.0
 11
4.4256920161
 21
3.607629853
 31
0.0
  0
LINE
  5
277
330
1F
100
AcDbEntity
  8
0
  6
Continuous
 62
     7
370
    30
100
AcDbLine
 10
4.5197618294
 20
3.6252413828
 30
0.0
 11
4.405331618
 21
3.6252413828
 31
0.0
  0
ARC
  5
278
330
1F
100
AcDbEntity
  8
0
  6
Continuous
 62
     7
370
    30
100
AcDbCircle
 10
4.5197618051
 20
3.5632413777
 30
0.0
 40
0.0620000000000047
100
AcDbArc
 50
0.0
 51
90.0
  0
LINE
  5
279
330
1F
100
AcDbEntity
  8
0
  6
Continuous
 62
     7
370
    30
100
AcDbLine
 10
4.2581610914
 20
3.4332908136
 30
0.0
 11
4.2581610914
 21
3.439147586
 31
0.0
  0
LINE
  5
27A
330
1F
100
AcDbEntity
  8
0
  6
Continuous
 62
     7
370
    30
100
AcDbLine
 10
4.2581610914
 20
3.5800412917
 30
0.0
 11
4.2378007666
 21
3.5917963425
 31
0.0
  0
LINE
  5
27B
330
1F
100
AcDbEntity
  8
0
  6
Continuous
 62
     7
370
    30
100
AcDbLine
 10
4.405331618
 20
3.5606513023
 30
0.0
 11
4.405331618
 21
3.55479453
 31
0.0
  0
LINE
  5
27C
330
1F
100
AcDbEntity
  8
0
  6
Continuous
 62
     7
370
    30
100
AcDbLine
 10
4.2581610914
 20
3.6094078724
 30
0.0
 11
4.2581610914
 21
3.6152647914
 31
0.0
  0
LINE
  5
27D
330
1F
100
AcDbEntity
  8
0
  6
Continuous
 62
     7
370
    30
100
AcDbLine
 10
4.2378007666
 20
3.5917963425
 30
0.0
 11
4.2378007666
 21
3.5976528216
 31
0.0
  0
LINE
  5
27E
330
1F
100
AcDbEntity
  8
0
  6
Continuous
 62
     7
370
    30
100
AcDbLine
 10
4.2581610914
 20
3.5741845193
 30
0.0
 11
4.2581610914
 21
3.5800412917
 31
0.0
  0
LINE
  5
27F
330
1F
100
AcDbEntity
  8
0
  6
Continuous
 62
     7
370
    30
100
AcDbLine
 10
4.2378007666
 20
3.5565729894
 30
0.0
 11
4.2378007666
 21
3.5624294685
 31
0.0
  0
LINE
  5
280
330
1F
100
AcDbEntity
  8
0
  6
Continuous
 62
     7
370
    30
100
AcDbLine
 10
4.2581610914
 20
3.5389610196
 30
0.0
 11
4.2581610914
 21
3.5448179386
 31
0.0
  0
LINE
  5
281
330
1F
100
AcDbEntity
  8
0
  6
Continuous
 62
     7
370
    30
100
AcDbLine
 10
4.2378007666
 20
3.5213494897
 30
0.0
 11
4.2378007666
 21
3.5272059687
 31
0.0
  0
LINE
  5
282
330
1F
100
AcDbEntity
  8
0
  6
Continuous
 62
     7
370
    30
100
AcDbLine
 10
4.2581610914
 20
3.5037376665
 30
0.0
 11
4.2581610914
 21
3.5095944388
 31
0.0
  0
LINE
  5
283
330
1F
100
AcDbEntity
  8
0
  6
Continuous
 62
     7
370
    30
100
AcDbLine
 10
4.2378007666
 20
3.4861261366
 30
0.0
 11
4.2378007666
 21
3.4919826156
 31
0.0
  0
LINE
  5
284
330
1F
100
AcDbEntity
  8
0
  6
Continuous
 62
     7
370
    30
100
AcDbLine
 10
4.2581610914
 20
3.4685141667
 30
0.0
 11
4.2581610914
 21
3.4743710857
 31
0.0
  0
LINE
  5
285
330
1F
100
AcDbEntity
  8
0
  6
Continuous
 62
     7
370
    30
100
AcDbLine
 10
4.405331618
 20
3.4139008243
 30
0.0
 11
4.4256920161
 21
3.4021457734
 31
0.0
  0
LINE
  5
286
330
1F
100
AcDbEntity
  8
0
  6
Continuous
 62
     7
370
    30
100
AcDbLine
 10
4.405331618
 20
3.449124324
 30
0.0
 11
4.4256920161
 21
3.4373692732
 31
0.0
  0
LINE
  5
287
330
1F
100
AcDbEntity
  8
0
  6
Continuous
 62
     7
370
    30
100
AcDbLine
 10
4.4256920161
 20
3.4667361472
 30
0.0
 11
4.405331618
 21
3.4549810964
 31
0.0
  0
LINE
  5
288
330
1F
100
AcDbEntity
  8
0
  6
Continuous
 62
     7
370
    30
100
AcDbLine
 10
4.405331618
 20
3.4843476771
 30
0.0
 11
4.4256920161
 21
3.4725926263
 31
0.0
  0
LINE
  5
289
330
1F
100
AcDbEntity
  8
0
  6
Continuous
 62
     7
370
    30
100
AcDbLine
 10
4.405331618
 20
3.4902044495
 30
0.0
 11
4.405331618
 21
3.4843476771
 31
0.0
  0
LINE
  5
28A
330
1F
100
AcDbEntity
  8
0
  6
Continuous
 62
     7
370
    30
100
AcDbLine
 10
4.5817618065
 20
3.5616524374
 30
0.0
 11
4.5817618065
 21
3.5632414057
 31
0.0
  0
ARC
  5
28B
330
1F
100
AcDbEntity
  8
0
  6
Continuous
 62
     7
370
    30
100
AcDbCircle
 10
4.4842618051
 20
3.4151251521
 30
0.0
 40
0.0199999999999989
100
AcDbArc
 50
0.0
 51
52.4184423813
  0
LINE
  5
28C
330
1F
100
AcDbEntity
  8
0
  6
Continuous
 62
     7
370
    30
100
AcDbLine
 10
4.5042618351
 20
3.2502413415
 30
0.0
 11
4.5042618351
 21
3.4151251835
 31
0.0
  0
LINE
  5
28D
330
1F
100
AcDbEntity
  8
0
  6
Continuous
 62
     7
370
    30
100
AcDbLine
 10
4.1592618206
 20
3.4151251835
 30
0.0
 11
4.1592618206
 21
3.2502413415
 31
0.0
  0
ARC
  5
28E
330
1F
100
AcDbEntity
  8
0
  6
Continuous
 62
     7
370
    30
100
AcDbCircle
 10
4.1792618051
 20
3.4151251521
 30
0.0
 40
0.02
100
AcDbArc
 50
127.5815576188
 51
180.0
  0
ARC
  5
28F
330
1F
100
AcDbEntity
  8
0
  6
Continuous
 62
     7
370
    30
100
AcDbCircle
 10
4.1237618051
 20
3.4872413777
 30
0.0
 40
0.0710000000000083
100
AcDbArc
 50
307.5815576188
 51
113.2698239585
  0
ARC
  5
290
330
1F
100
AcDbEntity
  8
0
  6
Continuous
 62
     7
370
    30
100
AcDbCircle
 10
4.0917618051
 20
3.5616523984
 30
0.0
 40
0.0099999999999936
100
AcDbArc
 50
180.0
 51
293.2698239585
  0
LINE
  5
291
330
1F
100
AcDbEntity
  8
0
  6
Continuous
 62
     7
370
    30
100
AcDbLine
 10
4.2378007666
 20
3.4567591158
 30
0.0
 11
4.2581610914
 21
3.4685141667
 31
0.0
  0
LINE
  5
292
330
1F
100
AcDbEntity
  8
0
  6
Continuous
 62
     7
370
    30
100
AcDbLine
 10
4.4256920161
 20
3.3962892944
 30
0.0
 11
4.4053308113
 21
3.3845338035
 31
0.0
  0
LINE
  5
293
330
1F
100
AcDbEntity
  8
0
  6
Continuous
 62
     7
370
    30
100
AcDbLine
 10
4.4256920161
 20
3.5019595003
 30
0.0
 11
4.405331618
 21
3.4902044495
 31
0.0
  0
LINE
  5
294
330
1F
100
AcDbEntity
  8
0
  6
Continuous
 62
     7
370
    30
100
AcDbLine
 10
4.405331618
 20
3.5195711769
 30
0.0
 11
4.4256920161
 21
3.5078159794
 31
0.0
  0
LINE
  5
295
330
1F
100
AcDbEntity
  8
0
  6
Continuous
 62
     7
370
    30
100
AcDbLine
 10
4.4256920161
 20
3.5371830001
 30
0.0
 11
4.405331618
 21
3.5254279492
 31
0.0
  0
LINE
  5
296
330
1F
100
AcDbEntity
  8
0
  6
Continuous
 62
     7
370
    30
100
AcDbLine
 10
4.405331618
 20
3.55479453
 30
0.0
 11
4.4256920161
 21
3.5430394791
 31
0.0
  0
LINE
  5
297
330
1F
100
AcDbEntity
  8
0
  6
Continuous
 62
     7
370
    30
100
AcDbLine
 10
4.4256920161
 20
3.5724063532
 30
0.0
 11
4.405331618
 21
3.5606513023
 31
0.0
  0
LINE
  5
298
330
1F
100
AcDbEntity
  8
0
  6
Continuous
 62
     7
370
    30
100
AcDbLine
 10
4.2581610914
 20
3.6152647914
 30
0.0
 11
4.2408810977
 21
3.6252413828
 31
0.0
  0
LINE
  5
299
330
1F
100
AcDbEntity
  8
0
  6
Continuous
 62
     7
370
    30
100
AcDbLine
 10
4.2378007666
 20
3.5976528216
 30
0.0
 11
4.2581610914
 21
3.6094078724
 31
0.0
  0
LINE
  5
29A
330
1F
100
AcDbEntity
  8
0
  6
Continuous
 62
     7
370
    30
100
AcDbLine
 10
4.2378007666
 20
3.5624294685
 30
0.0
 11
4.2581610914
 21
3.5741845193
 31
0.0
  0
LINE
  5
29B
330
1F
100
AcDbEntity
  8
0
  6
Continuous
 62
     7
370
    30
100
AcDbLine
 10
4.2581610914
 20
3.5448179386
 30
0.0
 11
4.2378007666
 21
3.5565729894
 31
0.0
  0
LINE
  5
29C
330
1F
100
AcDbEntity
  8
0
  6
Continuous
 62
     7
370
    30
100
AcDbLine
 10
4.2378007666
 20
3.5272059687
 30
0.0
 11
4.2581610914
 21
3.5389610196
 31
0.0
  0
LINE
  5
29D
330
1F
100
AcDbEntity
  8
0
  6
Continuous
 62
     7
370
    30
100
AcDbLine
 10
4.2581610914
 20
3.5095944388
 30
0.0
 11
4.2378007666
 21
3.5213494897
 31
0.0
  0
LINE
  5
29E
330
1F
100
AcDbEntity
  8
0
  6
Continuous
 62
     7
370
    30
100
AcDbLine
 10
4.2378007666
 20
3.4919826156
 30
0.0
 11
4.2581610914
 21
3.5037376665
 31
0.0
  0
LINE
  5
29F
330
1F
100
AcDbEntity
  8
0
  6
Continuous
 62
     7
370
    30
100
AcDbLine
 10
4.2581610914
 20
3.4743710857
 30
0.0
 11
4.2378007666
 21
3.4861261366
 31
0.0
  0
LINE
  5
2A0
330
1F
100
AcDbEntity
  8
0
  6
Continuous
 62
     7
370
    30
100
AcDbLine
 10
4.405331618
 20
3.6252413828
 30
0.0
 11
4.4256920161
 21
3.613486332
 31
0.0
  0
LINE
  5
2A1
330
1F
100
AcDbEntity
  8
0
  6
Continuous
 62
     7
370
    30
100
AcDbLine
 10
4.405331618
 20
3.5900178831
 30
0.0
 11
4.4256920161
 21
3.5782628322
 31
0.0
  0
LINE
  5
2A2
330
1F
100
AcDbEntity
  8
0
  6
Continuous
 62
     7
370
    30
100
AcDbLine
 10
4.4256920161
 20
3.607629853
 30
0.0
 11
4.405331618
 21
3.5958748021
 31
0.0
  0
ARC
  5
2A3
330
1F
100
AcDbEntity
  8
0
  6
Continuous
 62
     7
370
    30
100
AcDbCircle
 10
5.3321702223
 20
2.2152413777
 30
0.0
 40
0.0250000000000005
100
AcDbArc
 50
270.0
 51
21.86614513
  0
ARC
  5
2A4
330
1F
100
AcDbEntity
  8
0
  6
Continuous
 62
     7
370
    30
100
AcDbCircle
 10
5.4567618051
 20
2.2652413777
 30
0.0
 40
0.1092500000000007
100
AcDbArc
 50
193.0667292143
 51
201.86614513
  0
ARC
  5
2A5
330
1F
100
AcDbEntity
  8
0
  6
Continuous
 62
     7
370
    30
100
AcDbCircle
 10
5.3746932553
 20
2.2461936578
 30
0.0
 40
0.0250000000000002
100
AcDbArc
 50
13.0667292143
 51
193.0667292143
  0
ARC
  5
2A6
330
1F
100
AcDbEntity
  8
0
  6
Continuous
 62
     7
370
    30
100
AcDbCircle
 10
5.4567618051
 20
2.2652413777
 30
0.0
 40
0.059250000000001
100
AcDbArc
 50
193.0667292143
 51
90.0
  0
LINE
  5
2A7
330
1F
100
AcDbEntity
  8
0
  6
Continuous
 62
     7
370
    30
100
AcDbLine
 10
5.4317618049
 20
2.3244913759
 30
0.0
 11
5.4567618051
 21
2.3244913759
 31
0.0
  0
LINE
  5
2A8
330
1F
100
AcDbEntity
  8
0
  6
Continuous
 62
     7
370
    30
100
AcDbLine
 10
5.4317618049
 20
3.2127535546
 30
0.0
 11
5.4317618049
 21
2.3244913759
 31
0.0
  0
ARC
  5
2A9
330
1F
100
AcDbEntity
  8
0
  6
Continuous
 62
     7
370
    30
100
AcDbCircle
 10
5.3567618051
 20
3.2127535431
 30
0.0
 40
0.0749999999999995
100
AcDbArc
 50
0.0
 51
83.3002348222
  0
ARC
  5
2AA
330
1F
100
AcDbEntity
  8
0
  6
Continuous
 62
     7
370
    30
100
AcDbCircle
 10
5.3707618051
 20
3.3319340784
 30
0.0
 40
0.0450000000000004
100
AcDbArc
 50
180.0
 51
263.3002348222
  0
LINE
  5
2AB
330
1F
100
AcDbEntity
  8
0
  6
Continuous
 62
     7
370
    30
100
AcDbLine
 10
5.3257618068
 20
3.4072413545
 30
0.0
 11
5.3257618068
 21
3.3319340978
 31
0.0
  0
ARC
  5
2AC
330
1F
100
AcDbEntity
  8
0
  6
Continuous
 62
     7
370
    30
100
AcDbCircle
 10
5.3357618051
 20
3.4072413777
 30
0.0
 40
0.0100000000000002
100
AcDbArc
 50
90.0
 51
180.0
  0
LINE
  5
2AD
330
1F
100
AcDbEntity
  8
0
  6
Continuous
 62
     7
370
    30
100
AcDbLine
 10
5.3421978169
 20
3.4172414123
 30
0.0
 11
5.3357618096
 21
3.4172414123
 31
0.0
  0
LINE
  5
2AE
330
1F
100
AcDbEntity
  8
0
  6
Continuous
 62
     7
370
    30
100
AcDbLine
 10
5.3757618025
 20
3.3772413278
 30
0.0
 11
5.3421978169
 21
3.4172414123
 31
0.0
  0
LINE
  5
2AF
330
1F
100
AcDbEntity
  8
0
  6
Continuous
 62
     7
370
    30
100
AcDbLine
 10
5.3669454593
 20
3.3272414054
 30
0.0
 11
5.3757618025
 21
3.3772413278
 31
0.0
  0
LINE
  5
2B0
330
1F
100
AcDbEntity
  8
0
  6
Continuous
 62
     7
370
    30
100
AcDbLine
 10
5.4317618049
 20
3.3272414054
 30
0.0
 11
5.3669454593
 21
3.3272414054
 31
0.0
  0
LINE
  5
2B1
330
1F
100
AcDbEntity
  8
0
  6
Continuous
 62
     7
370
    30
100
AcDbLine
 10
5.4317618049
 20
3.952241352
 30
0.0
 11
5.4317618049
 21
3.3272414054
 31
0.0
  0
LINE
  5
2B2
330
1F
100
AcDbEntity
  8
0
  6
Continuous
 62
     7
370
    30
100
AcDbLine
 10
5.5465781509
 20
3.3272414054
 30
0.0
 11
5.4817618053
 21
3.3272414054
 31
0.0
  0
LINE
  5
2B3
330
1F
100
AcDbEntity
  8
0
  6
Continuous
 62
     7
370
    30
100
AcDbLine
 10
5.5377618077
 20
3.3772413278
 30
0.0
 11
5.5465781509
 21
3.3272414054
 31
0.0
  0
LINE
  5
2B4
330
1F
100
AcDbEntity
  8
0
  6
Continuous
 62
     7
370
    30
100
AcDbLine
 10
5.5713257933
 20
3.4172414123
 30
0.0
 11
5.5377618077
 21
3.3772413278
 31
0.0
  0
LINE
  5
2B5
330
1F
100
AcDbEntity
  8
0
  6
Continuous
 62
     7
370
    30
100
AcDbLine
 10
5.5777618006
 20
3.4172414123
 30
0.0
 11
5.5713257933
 21
3.4172414123
 31
0.0
  0
ARC
  5
2B6
330
1F
100
AcDbEntity
  8
0
  6
Continuous
 62
     7
370
    30
100
AcDbCircle
 10
5.5777618051
 20
3.4072413777
 30
0.0
 40
0.0100000000000007
100
AcDbArc
 50
0.0
 51
90.0
  0
LINE
  5
2B7
330
1F
100
AcDbEntity
  8
0
  6
Continuous
 62
     7
370
    30
100
AcDbLine
 10
5.5877618034
 20
3.3319340978
 30
0.0
 11
5.5877618034
 21
3.4072413545
 31
0.0
  0
ARC
  5
2B8
330
1F
100
AcDbEntity
  8
0
  6
Continuous
 62
     7
370
    30
100
AcDbCircle
 10
5.5427618051
 20
3.3319340784
 30
0.0
 40
0.0450000000000008
100
AcDbArc
 50
276.6997651778
 51
0.0
  0
ARC
  5
2B9
330
1F
100
AcDbEntity
  8
0
  6
Continuous
 62
     7
370
    30
100
AcDbCircle
 10
5.5567618051
 20
3.2127535431
 30
0.0
 40
0.0750000000000011
100
AcDbArc
 50
96.6997651778
 51
180.0
  0
LINE
  5
2BA
330
1F
100
AcDbEntity
  8
0
  6
Continuous
 62
     7
370
    30
100
AcDbLine
 10
5.4817618053
 20
2.3715925018
 30
0.0
 11
5.4817618053
 21
3.2127535546
 31
0.0
  0
ARC
  5
2BB
330
1F
100
AcDbEntity
  8
0
  6
Continuous
 62
     7
370
    30
100
AcDbCircle
 10
5.4567618051
 20
2.2652413777
 30
0.0
 40
0.1092499999999999
100
AcDbArc
 50
338.13385487
 51
76.7716275079
  0
ARC
  5
2BC
330
1F
100
AcDbEntity
  8
0
  6
Continuous
 62
     7
370
    30
100
AcDbCircle
 10
5.5813533879
 20
2.2152413777
 30
0.0
 40
0.0249999999999999
100
AcDbArc
 50
158.13385487
 51
270.0
  0
LINE
  5
2BD
330
1F
100
AcDbEntity
  8
0
  6
Continuous
 62
     7
370
    30
100
AcDbLine
 10
5.8317618097
 20
2.190241378
 30
0.0
 11
5.5813533875
 21
2.190241378
 31
0.0
  0
LINE
  5
2BE
330
1F
100
AcDbEntity
  8
0
  6
Continuous
 62
     7
370
    30
100
AcDbLine
 10
5.4817618053
 20
3.3272414054
 30
0.0
 11
5.4817618053
 21
3.952241352
 31
0.0
  0
LINE
  5
2BF
330
1F
100
AcDbEntity
  8
0
  6
Continuous
 62
     7
370
    30
100
AcDbLine
 10
5.4317618049
 20
3.952241352
 30
0.0
 11
5.4817618053
 21
3.952241352
 31
0.0
  0
LINE
  5
2C0
330
1F
100
AcDbEntity
  8
0
  6
Continuous
 62
     7
370
    30
100
AcDbLine
 10
5.3321702227
 20
2.190241378
 30
0.0
 11
5.0817618005
 21
2.190241378
 31
0.0
  0
LINE
  5
2C1
330
1F
100
AcDbEntity
  8
0
  6
Continuous
 62
     7
370
    30
100
AcDbLine
 10
5.0817618005
 20
2.1402413777
 30
0.0
 11
5.0817618005
 21
2.190241378
 31
0.0
  0
LINE
  5
2C2
330
1F
100
AcDbEntity
  8
0
  6
Continuous
 62
     7
370
    30
100
AcDbLine
 10
5.0817618005
 20
2.1402413777
 30
0.0
 11
5.8317618097
 21
2.1402413777
 31
0.0
  0
LINE
  5
2C3
330
1F
100
AcDbEntity
  8
0
  6
Continuous
 62
     7
370
    30
100
AcDbLine
 10
5.8317618097
 20
2.1402413777
 30
0.0
 11
5.8317618097
 21
2.190241378
 31
0.0
  0
LINE
  5
2C4
330
1F
100
AcDbEntity
  8
0
  6
Continuous
 62
     7
370
    30
100
AcDbLine
 10
4.1004985928
 20
3.4868489016
 30
0.0
 11
4.0973928153
 21
3.4752576755
 31
0.0
  0
LINE
  5
2C5
330
1F
100
AcDbEntity
  8
0
  6
Continuous
 62
     7
370
    30
100
AcDbLine
 10
4.1458971217
 20
3.4746843621
 30
0.0
 11
4.1004985928
 21
3.4868489016
 31
0.0
  0
LWPOLYLINE
  5
2C6
330
1F
100
AcDbEntity
  8
0
  6
Continuous
 62
     7
370
    30
100
AcDbPolyline
 90
        3
 70
   128
 43
0.0
 10
4.1492617628
 20
3.5002413202
 10
4.1546270608
 20
3.4990826669
 10
4.1552030141
 20
3.4988042968
  0
LWPOLYLINE
  5
2C7
330
1F
100
AcDbEntity
  8
0
  6
Continuous
 62
     7
370
    30
100
AcDbPolyline
 90
        3
 70
   128
 43
0.0
 10
4.1552030141
 20
3.4756784573
 10
4.1513794583
 20
3.4744150852
 10
4.1458971217
 20
3.4746843621
  0
LINE
  5
2C8
330
1F
100
AcDbEntity
  8
0
  6
Continuous
 62
     7
370
    30
100
AcDbLine
 10
4.1167618316
 20
3.5002413202
 30
0.0
 11
4.1492617628
 21
3.5002413202
 31
0.0
  0
ARC
  5
2C9
330
1F
100
AcDbEntity
  8
0
  6
Continuous
 62
     7
370
    30
100
AcDbCircle
 10
4.1167618051
 20
3.5932413777
 30
0.0
 40
0.0930000000000014
100
AcDbArc
 50
109.6973630774
 51
270.0
  0
LINE
  5
2CA
330
1F
100
AcDbEntity
  8
0
  6
Continuous
 62
     7
370
    30
100
AcDbLine
 10
4.2033988841
 20
3.7230374398
 30
0.0
 11
4.085416007
 21
3.680799541
 31
0.0
  0
ARC
  5
2CB
330
1F
100
AcDbEntity
  8
0
  6
Continuous
 62
     7
370
    30
100
AcDbCircle
 10
4.1993541946
 20
3.7343352612
 30
0.0
 40
0.0120000000000002
100
AcDbArc
 50
289.6973630774
 51
322.2281218619
  0
ARC
  5
2CC
330
1F
100
AcDbEntity
  8
0
  6
Continuous
 62
     7
370
    30
100
AcDbCircle
 10
4.3317618051
 20
3.6317334412
 30
0.0
 40
0.1555079365079419
100
AcDbArc
 50
37.7718781381
 51
142.2281218619
  0
ARC
  5
2CD
330
1F
100
AcDbEntity
  8
0
  6
Continuous
 62
     7
370
    30
100
AcDbCircle
 10
4.4641694156
 20
3.7343352612
 30
0.0
 40
0.0120000000000005
100
AcDbArc
 50
217.7718781381
 51
250.3026369226
  0
LINE
  5
2CE
330
1F
100
AcDbEntity
  8
0
  6
Continuous
 62
     7
370
    30
100
AcDbLine
 10
4.5781076487
 20
3.680799541
 30
0.0
 11
4.4601247717
 21
3.7230374398
 31
0.0
  0
ARC
  5
2CF
330
1F
100
AcDbEntity
  8
0
  6
Continuous
 62
     7
370
    30
100
AcDbCircle
 10
4.5467618051
 20
3.5932413777
 30
0.0
 40
0.0930000000000022
100
AcDbArc
 50
270.0
 51
70.3026369226
  0
LINE
  5
2D0
330
1F
100
AcDbEntity
  8
0
  6
Continuous
 62
     7
370
    30
100
AcDbLine
 10
4.5142618196
 20
3.5002413202
 30
0.0
 11
4.5467618242
 21
3.5002413202
 31
0.0
  0
LWPOLYLINE
  5
2D1
330
1F
100
AcDbEntity
  8
0
  6
Continuous
 62
     7
370
    30
100
AcDbPolyline
 90
        3
 70
   128
 43
0.0
 10
4.5176264607
 20
3.4746843621
 10
4.5121441974
 20
3.4744150852
 10
4.5083206416
 20
3.4756784573
  0
LWPOLYLINE
  5
2D2
330
1F
100
AcDbEntity
  8
0
  6
Continuous
 62
     7
370
    30
100
AcDbPolyline
 90
        3
 70
   128
 43
0.0
 10
4.5083206416
 20
3.4988042968
 10
4.5088965949
 20
3.4990826669
 10
4.5142618196
 20
3.5002413202
  0
LINE
  5
2D3
330
1F
100
AcDbEntity
  8
0
  6
Continuous
 62
     7
370
    30
100
AcDbLine
 10
4.5661307671
 20
3.4752576755
 30
0.0
 11
4.5630249896
 21
3.4868489016
 31
0.0
  0
LINE
  5
2D4
330
1F
100
AcDbEntity
  8
0
  6
Continuous
 62
     7
370
    30
100
AcDbLine
 10
4.5661307671
 20
3.4752576755
 30
0.0
 11
4.5207323115
 21
3.4630932827
 31
0.0
  0
LINE
  5
2D5
330
1F
100
AcDbEntity
  8
0
  6
Continuous
 62
     7
370
    30
100
AcDbLine
 10
4.5207323115
 20
3.4630932827
 30
0.0
 11
4.5172617783
 21
3.4624219971
 31
0.0
  0
LINE
  5
2D6
330
1F
100
AcDbEntity
  8
0
  6
Continuous
 62
     7
370
    30
100
AcDbLine
 10
4.5174627093
 20
3.5122414482
 30
0.0
 11
4.5467618242
 21
3.5122414482
 31
0.0
  0
ARC
  5
2D7
330
1F
100
AcDbEntity
  8
0
  6
Continuous
 62
     7
370
    30
100
AcDbCircle
 10
4.5467618051
 20
3.5932413777
 30
0.0
 40
0.0810000000000026
100
AcDbArc
 50
270.0
 51
70.3026369226
  0
LINE
  5
2D8
330
1F
100
AcDbEntity
  8
0
  6
Continuous
 62
     7
370
    30
100
AcDbLine
 10
4.5740629954
 20
3.6695017915
 30
0.0
 11
4.4560801917
 21
3.7117395436
 31
0.0
  0
ARC
  5
2D9
330
1F
100
AcDbEntity
  8
0
  6
Continuous
 62
     7
370
    30
100
AcDbCircle
 10
4.4641694156
 20
3.7343352612
 30
0.0
 40
0.0240000000000031
100
AcDbArc
 50
217.7718781381
 51
250.3026369226
  0
ARC
  5
2DA
330
1F
100
AcDbEntity
  8
0
  6
Continuous
 62
     7
370
    30
100
AcDbCircle
 10
4.3317618051
 20
3.6317334412
 30
0.0
 40
0.1435079365079397
100
AcDbArc
 50
37.7718781381
 51
142.2281218619
  0
ARC
  5
2DB
330
1F
100
AcDbEntity
  8
0
  6
Continuous
 62
     7
370
    30
100
AcDbCircle
 10
4.1993541946
 20
3.7343352612
 30
0.0
 40
0.0240000000000028
100
AcDbArc
 50
289.6973630774
 51
322.2281218619
  0
LINE
  5
2DC
330
1F
100
AcDbEntity
  8
0
  6
Continuous
 62
     7
370
    30
100
AcDbLine
 10
4.207443464
 20
3.7117395436
 30
0.0
 11
4.0894605869
 21
3.6695017915
 31
0.0
  0
ARC
  5
2DD
330
1F
100
AcDbEntity
  8
0
  6
Continuous
 62
     7
370
    30
100
AcDbCircle
 10
4.1167618051
 20
3.5932413777
 30
0.0
 40
0.0810000000000012
100
AcDbArc
 50
109.6973630774
 51
270.0
  0
LINE
  5
2DE
330
1F
100
AcDbEntity
  8
0
  6
Continuous
 62
     7
370
    30
100
AcDbLine
 10
4.1167618316
 20
3.5122414482
 30
0.0
 11
4.1460609464
 21
3.5122414482
 31
0.0
  0
LINE
  5
2DF
330
1F
100
AcDbEntity
  8
0
  6
Continuous
 62
     7
370
    30
100
AcDbLine
 10
4.1462618774
 20
3.4624219971
 30
0.0
 11
4.1427913442
 21
3.4630932827
 31
0.0
  0
LINE
  5
2E0
330
1F
100
AcDbEntity
  8
0
  6
Continuous
 62
     7
370
    30
100
AcDbLine
 10
4.1427913442
 20
3.4630932827
 30
0.0
 11
4.0973928153
 21
3.4752576755
 31
0.0
  0
LINE
  5
2E1
330
1F
100
AcDbEntity
  8
0
  6
Continuous
 62
     7
370
    30
100
AcDbLine
 10
4.5630249896
 20
3.4868489016
 30
0.0
 11
4.5176264607
 21
3.4746843621
 31
0.0
  0
LINE
  5
2E2
330
1F
100
AcDbEntity
  8
0
  6
Continuous
 62
     7
370
    30
100
AcDbLine
 10
6.3504986206
 20
3.4868489016
 30
0.0
 11
6.3473928431
 21
3.4752576755
 31
0.0
  0
LINE
  5
2E3
330
1F
100
AcDbEntity
  8
0
  6
Continuous
 62
     7
370
    30
100
AcDbLine
 10
6.3958971495
 20
3.4746843621
 30
0.0
 11
6.3504986206
 21
3.4868489016
 31
0.0
  0
LWPOLYLINE
  5
2E4
330
1F
100
AcDbEntity
  8
0
  6
Continuous
 62
     7
370
    30
100
AcDbPolyline
 90
        3
 70
   128
 43
0.0
 10
6.3992617906
 20
3.5002413202
 10
6.4046270153
 20
3.4990826669
 10
6.4052029686
 20
3.4988042968
  0
LWPOLYLINE
  5
2E5
330
1F
100
AcDbEntity
  8
0
  6
Continuous
 62
     7
370
    30
100
AcDbPolyline
 90
        3
 70
   128
 43
0.0
 10
6.4052029686
 20
3.4756784573
 10
6.4013794128
 20
3.4744150852
 10
6.3958971495
 20
3.4746843621
  0
LINE
  5
2E6
330
1F
100
AcDbEntity
  8
0
  6
Continuous
 62
     7
370
    30
100
AcDbLine
 10
6.366761786
 20
3.5002413202
 30
0.0
 11
6.3992617906
 21
3.5002413202
 31
0.0
  0
ARC
  5
2E7
330
1F
100
AcDbEntity
  8
0
  6
Continuous
 62
     7
370
    30
100
AcDbCircle
 10
6.3667618051
 20
3.5932413777
 30
0.0
 40
0.0930000000000021
100
AcDbArc
 50
109.6973630774
 51
270.0
  0
LINE
  5
2E8
330
1F
100
AcDbEntity
  8
0
  6
Continuous
 62
     7
370
    30
100
AcDbLine
 10
6.4533988385
 20
3.7230374398
 30
0.0
 11
6.3354159615
 21
3.680799541
 31
0.0
  0
ARC
  5
2E9
330
1F
100
AcDbEntity
  8
0
  6
Continuous
 62
     7
370
    30
100
AcDbCircle
 10
6.4493541946
 20
3.7343352612
 30
0.0
 40
0.0120000000000005
100
AcDbArc
 50
289.6973630774
 51
322.2281218619
  0
ARC
  5
2EA
330
1F
100
AcDbEntity
  8
0
  6
Continuous
 62
     7
370
    30
100
AcDbCircle
 10
6.5817618051
 20
3.6317334412
 30
0.0
 40
0.1555079365079419
100
AcDbArc
 50
37.7718781381
 51
142.2281218619
  0
ARC
  5
2EB
330
1F
100
AcDbEntity
  8
0
  6
Continuous
 62
     7
370
    30
100
AcDbCircle
 10
6.7141694156
 20
3.7343352612
 30
0.0
 40
0.0120000000000008
100
AcDbArc
 50
217.7718781381
 51
250.3026369226
  0
LINE
  5
2EC
330
1F
100
AcDbEntity
  8
0
  6
Continuous
 62
     7
370
    30
100
AcDbLine
 10
6.8281076032
 20
3.680799541
 30
0.0
 11
6.7101247261
 21
3.7230374398
 31
0.0
  0
ARC
  5
2ED
330
1F
100
AcDbEntity
  8
0
  6
Continuous
 62
     7
370
    30
100
AcDbCircle
 10
6.7967618051
 20
3.5932413777
 30
0.0
 40
0.0930000000000022
100
AcDbArc
 50
270.0
 51
70.3026369226
  0
LINE
  5
2EE
330
1F
100
AcDbEntity
  8
0
  6
Continuous
 62
     7
370
    30
100
AcDbLine
 10
6.7642618474
 20
3.5002413202
 30
0.0
 11
6.7967617786
 21
3.5002413202
 31
0.0
  0
LINE
  5
2EF
330
1F
100
AcDbEntity
  8
0
  6
Continuous
 62
     7
370
    30
100
AcDbLine
 10
6.8161307949
 20
3.4752576755
 30
0.0
 11
6.8130250174
 21
3.4868489016
 31
0.0
  0
LINE
  5
2F0
330
1F
100
AcDbEntity
  8
0
  6
Continuous
 62
     7
370
    30
100
AcDbLine
 10
6.8161307949
 20
3.4752576755
 30
0.0
 11
6.770732266
 21
3.4630932827
 31
0.0
  0
LINE
  5
2F1
330
1F
100
AcDbEntity
  8
0
  6
Continuous
 62
     7
370
    30
100
AcDbLine
 10
6.770732266
 20
3.4630932827
 30
0.0
 11
6.7672617328
 21
3.4624219971
 31
0.0
  0
LINE
  5
2F2
330
1F
100
AcDbEntity
  8
0
  6
Continuous
 62
     7
370
    30
100
AcDbLine
 10
6.7674626638
 20
3.5122414482
 30
0.0
 11
6.7967617786
 21
3.5122414482
 31
0.0
  0
ARC
  5
2F3
330
1F
100
AcDbEntity
  8
0
  6
Continuous
 62
     7
370
    30
100
AcDbCircle
 10
6.7967618051
 20
3.5932413777
 30
0.0
 40
0.0810000000000031
100
AcDbArc
 50
270.0
 51
70.3026369226
  0
LINE
  5
2F4
330
1F
100
AcDbEntity
  8
0
  6
Continuous
 62
     7
370
    30
100
AcDbLine
 10
6.8240630233
 20
3.6695017915
 30
0.0
 11
6.7060801462
 21
3.7117395436
 31
0.0
  0
ARC
  5
2F5
330
1F
100
AcDbEntity
  8
0
  6
Continuous
 62
     7
370
    30
100
AcDbCircle
 10
6.7141694156
 20
3.7343352612
 30
0.0
 40
0.0240000000000031
100
AcDbArc
 50
217.7718781381
 51
250.3026369226
  0
ARC
  5
2F6
330
1F
100
AcDbEntity
  8
0
  6
Continuous
 62
     7
370
    30
100
AcDbCircle
 10
6.5817618051
 20
3.6317334412
 30
0.0
 40
0.1435079365079397
100
AcDbArc
 50
37.7718781381
 51
142.2281218619
  0
ARC
  5
2F7
330
1F
100
AcDbEntity
  8
0
  6
Continuous
 62
     7
370
    30
100
AcDbCircle
 10
6.4493541946
 20
3.7343352612
 30
0.0
 40
0.0240000000000031
100
AcDbArc
 50
289.6973630774
 51
322.2281218619
  0
LINE
  5
2F8
330
1F
100
AcDbEntity
  8
0
  6
Continuous
 62
     7
370
    30
100
AcDbLine
 10
6.4574434185
 20
3.7117395436
 30
0.0
 11
6.3394606148
 21
3.6695017915
 31
0.0
  0
ARC
  5
2F9
330
1F
100
AcDbEntity
  8
0
  6
Continuous
 62
     7
370
    30
100
AcDbCircle
 10
6.3667618051
 20
3.5932413777
 30
0.0
 40
0.0810000000000019
100
AcDbArc
 50
109.6973630774
 51
270.0
  0
LINE
  5
2FA
330
1F
100
AcDbEntity
  8
0
  6
Continuous
 62
     7
370
    30
100
AcDbLine
 10
6.366761786
 20
3.5122414482
 30
0.0
 11
6.3960609009
 21
3.5122414482
 31
0.0
  0
LINE
  5
2FB
330
1F
100
AcDbEntity
  8
0
  6
Continuous
 62
     7
370
    30
100
AcDbLine
 10
6.3962618319
 20
3.4624219971
 30
0.0
 11
6.3927912987
 21
3.4630932827
 31
0.0
  0
LINE
  5
2FC
330
1F
100
AcDbEntity
  8
0
  6
Continuous
 62
     7
370
    30
100
AcDbLine
 10
6.3927912987
 20
3.4630932827
 30
0.0
 11
6.3473928431
 21
3.4752576755
 31
0.0
  0
LWPOLYLINE
  5
2FD
330
1F
100
AcDbEntity
  8
0
  6
Continuous
 62
     7
370
    30
100
AcDbPolyline
 90
        3
 70
   128
 43
0.0
 10
6.7676264885
 20
3.4746843621
 10
6.7621441519
 20
3.4744150852
 10
6.758320596
 20
3.4756784573
  0
LWPOLYLINE
  5
2FE
330
1F
100
AcDbEntity
  8
0
  6
Continuous
 62
     7
370
    30
100
AcDbPolyline
 90
        3
 70
   128
 43
0.0
 10
6.758320596
 20
3.4988042968
 10
6.7588965494
 20
3.4990826669
 10
6.7642618474
 20
3.5002413202
  0
LINE
  5
2FF
330
1F
100
AcDbEntity
  8
0
  6
Continuous
 62
     7
370
    30
100
AcDbLine
 10
6.8130250174
 20
3.4868489016
 30
0.0
 11
6.7676264885
 21
3.4746843621
 31
0.0
  0
LINE
  5
300
330
1F
100
AcDbEntity
  8
0
  6
Continuous
 62
     7
370
    30
100
AcDbLine
 10
4.2581610914
 20
3.4382413431
 30
0.0
 11
4.4237618317
 21
3.4382413431
 31
0.0
  0
LINE
  5
301
330
1F
100
AcDbEntity
  8
0
  6
Continuous
 62
     7
370
    30
100
AcDbLine
 10
6.5081611192
 20
3.4382413431
 30
0.0
 11
6.6737617862
 21
3.4382413431
 31
0.0
  0
LINE
  5
302
330
1F
100
AcDbEntity
  8
0
  6
Continuous
 62
     7
370
    30
100
AcDbLine
 10
7.6187617495
 20
3.952241352
 30
0.0
 11
7.681761835
 21
3.952241352
 31
0.0
  0
LINE
  5
303
330
1F
100
AcDbEntity
  8
0
  6
Continuous
 62
     7
370
    30
100
AcDbLine
 10
7.681761835
 20
3.9422414408
 30
0.0
 11
7.681761835
 21
3.952241352
 31
0.0
  0
LINE
  5
304
330
1F
100
AcDbEntity
  8
0
  6
Continuous
 62
     7
370
    30
100
AcDbLine
 10
7.6187617495
 20
3.952241352
 30
0.0
 11
7.6187617495
 21
3.3855836314
 31
0.0
  0
LINE
  5
305
330
1F
100
AcDbEntity
  8
0
  6
Continuous
 62
     7
370
    30
100
AcDbLine
 10
5.544761806
 20
3.952241352
 30
0.0
 11
5.4817618053
 21
3.952241352
 31
0.0
  0
LINE
  5
306
330
1F
100
AcDbEntity
  8
0
  6
Continuous
 62
     7
370
    30
100
AcDbLine
 10
5.544761806
 20
3.952241352
 30
0.0
 11
5.544761806
 21
3.3855836314
 31
0.0
  0
LINE
  5
307
330
1F
100
AcDbEntity
  8
0
  6
Continuous
 62
     7
370
    30
100
AcDbLine
 10
5.544761806
 20
3.3375424197
 30
0.0
 11
5.544761806
 21
3.3272414054
 31
0.0
  0
ELLIPSE
  5
308
330
1F
100
AcDbEntity
  8
0
  6
Continuous
 62
     7
370
    30
100
AcDbEllipse
 10
5.5519618051
 20
3.6392413777
 30
0.0
 11
0.0
 21
0.09450000000000047
 31
0.0
210
0.0
220
0.0
230
1.0
 40
0.0538748024
 41
0.4657290497382972
 42
2.675863603851651
  0
ARC
  5
309
330
1F
100
AcDbEntity
  8
0
  6
Continuous
 62
     7
370
    30
100
AcDbCircle
 10
5.551595061
 20
3.5482468061
 30
0.0
 40
0.0068344192566753
100
AcDbArc
 50
106.311983952
 51
178.9424161625
  0
ARC
  5
30A
330
1F
100
AcDbEntity
  8
0
  6
Continuous
 62
     7
370
    30
100
AcDbCircle
 10
5.551595061
 20
3.7302359161
 30
0.0
 40
0.0068344192566751
100
AcDbArc
 50
181.0575838375
 51
253.688016048
  0
ELLIPSE
  5
30B
330
1F
100
AcDbEntity
  8
0
  6
Continuous
 62
     7
370
    30
100
AcDbEllipse
 10
7.6115618051
 20
3.6392413777
 30
0.0
 11
0.0
 21
0.09450000000000003
 31
0.0
210
0.0
220
0.0
230
1.0
 40
0.0538748024
 41
3.618357460701852
 42
5.806420500069333
  0
ARC
  5
30C
330
1F
100
AcDbEntity
  8
0
  6
Continuous
 62
     7
370
    30
100
AcDbCircle
 10
7.6119508338
 20
3.7297310713
 30
0.0
 40
0.0068121718357803
100
AcDbArc
 50
286.6105349166
 51
358.8996826348
  0
ARC
  5
30D
330
1F
100
AcDbEntity
  8
0
  6
Continuous
 62
     7
370
    30
100
AcDbCircle
 10
7.6119510584
 20
3.5487518217
 30
0.0
 40
0.006811944021597
100
AcDbArc
 50
1.0989177784
 51
73.3908646703
  0
SPLINE
  5
30E
330
1F
100
AcDbEntity
  8
0
  6
Continuous
 62
     7
370
    30
100
AcDbSpline
210
0.0
220
0.0
230
1.0
 70
     8
 71
     3
 72
    12
 73
     8
 74
     0
 42
0.000000001
 43
0.00000001
 40
0.0
 40
0.0
 40
0.0
 40
0.0
 40
0.1991126780854541
 40
0.395314257790989
 40
0.5953733038119406
 40
0.799871138107995
 40
1.0
 40
1.0
 40
1.0
 40
1.0
 10
5.573475489310752
 20
3.723676605717563
 30
0.0
 10
5.571092954609868
 20
3.724383537822201
 30
0.0
 10
5.566362718715311
 20
3.725787066431935
 30
0.0
 10
5.559719874766927
 20
3.726650461793845
 30
0.0
 10
5.554337044550665
 20
3.726671468920913
 30
0.0
 10
5.550590916225981
 20
3.7258215469198
 30
0.0
 10
5.549978431020193
 20
3.724386420841862
 30
0.0
 10
5.549675495083649
 20
3.723676605717563
 30
0.0
  0
ELLIPSE
  5
30F
330
1F
100
AcDbEntity
  8
0
  6
Continuous
 62
     7
370
    30
100
AcDbEllipse
 10
5.5111734574
 20
3.6392413777
 30
0.0
 11
0.138734350468801
 21
4.440892098500626E-16
 31
0.0
210
0.0
220
0.0
230
1.0
 40
0.6811579085
 41
5.178118030121316
 42
7.388252584237891
  0
SPLINE
  5
310
330
1F
100
AcDbEntity
  8
0
  6
Continuous
 62
     7
370
    30
100
AcDbSpline
210
0.0
220
0.0
230
1.0
 70
     8
 71
     3
 72
    12
 73
     8
 74
     0
 42
0.000000001
 43
0.00000001
 40
0.0
 40
0.0
 40
0.0
 40
0.0
 40
0.1991075082100673
 40
0.3953091886896322
 40
0.5953644475499402
 40
0.7998613922077198
 40
1.0
 40
1.0
 40
1.0
 40
1.0
 10
5.549675495083649
 20
3.554806116523864
 30
0.0
 10
5.549975375934667
 20
3.554099182498486
 30
0.0
 10
5.550570761096105
 20
3.552695631630204
 30
0.0
 10
5.554197061956242
 20
3.5518322715919
 30
0.0
 10
5.55950501223672
 20
3.551811245376213
 30
0.0
 10
5.566238611036147
 20
3.552661225106531
 30
0.0
 10
5.571080580867472
 20
3.554096305142441
 30
0.0
 10
5.573475489310752
 20
3.554806116523864
 30
0.0
  0
SPLINE
  5
311
330
1F
100
AcDbEntity
  8
0
  6
Continuous
 62
     7
370
    30
100
AcDbSpline
210
0.0
220
0.0
230
1.0
 70
     8
 71
     3
 72
    12
 73
     8
 74
     0
 42
0.000000001
 43
0.00000001
 40
0.0
 40
0.0
 40
0.0
 40
0.0
 40
0.2018492316667575
 40
0.3970198209581633
 40
0.5962551695526485
 40
0.8003199829742298
 40
1.0
 40
1.0
 40
1.0
 40
1.0
 10
7.590098133947209
 20
3.555279551054708
 30
0.0
 10
7.592511021634004
 20
3.554544656489024
 30
0.0
 10
7.597256961113154
 20
3.553099183021117
 30
0.0
 10
7.603903851441418
 20
3.552216875914382
 30
0.0
 10
7.60926124565615
 20
3.55220114025198
 30
0.0
 10
7.612989280798897
 20
3.553080692691915
 30
0.0
 10
7.613597423366587
 20
3.554551924280374
 30
0.0
 10
7.613898192340237
 20
3.555279551054708
 30
0.0
  0
ELLIPSE
  5
312
330
1F
100
AcDbEntity
  8
0
  6
Continuous
 62
     7
370
    30
100
AcDbEllipse
 10
7.6537643663
 20
3.6392413777
 30
0.0
 11
0.1387343504688001
 21
0.0
 31
0.0
210
0.0
220
0.0
230
1.0
 40
0.6811579085
 41
2.047561133908001
 42
4.235624173271614
  0
SPLINE
  5
313
330
1F
100
AcDbEntity
  8
0
  6
Continuous
 62
     7
370
    30
100
AcDbSpline
210
0.0
220
0.0
230
1.0
 70
     8
 71
     3
 72
    12
 73
     8
 74
     0
 42
0.000000001
 43
0.00000001
 40
0.0
 40
0.0
 40
0.0
 40
0.0
 40
0.2018397012484046
 40
0.3970189054944241
 40
0.5962516015720559
 40
0.800319506851433
 40
0.9999999999999999
 40
0.9999999999999999
 40
0.9999999999999999
 40
0.9999999999999999
 10
7.613898192340237
 20
3.723203171186719
 30
0.0
 10
7.613592170638231
 20
3.723938070650394
 30
0.0
 10
7.612990225627232
 20
3.725383618671482
 30
0.0
 10
7.609336600840222
 20
3.726265833372583
 30
0.0
 10
7.604033304386201
 20
3.726281518748706
 30
0.0
 10
7.597309279875705
 20
3.725402275119087
 30
0.0
 10
7.592484372318074
 20
3.723930876080916
 30
0.0
 10
7.590098133947209
 20
3.723203171186719
 30
0.0
  0
LINE
  5
314
330
1F
100
AcDbEntity
  8
0
  6
Continuous
 62
     7
370
    30
100
AcDbLine
 10
5.544761806
 20
3.4522413947
 30
0.0
 11
5.5757618037
 21
3.4522413947
 31
0.0
  0
SPLINE
  5
315
330
1F
100
AcDbEntity
  8
0
  6
Continuous
 62
     7
370
    30
100
AcDbSpline
210
0.0
220
0.0
230
1.0
 70
     8
 71
     3
 72
    12
 73
     8
 74
     0
 42
0.000000001
 43
0.00000001
 40
0.0
 40
0.0
 40
0.0
 40
0.0
 40
0.2013227229433391
 40
0.4052719989578779
 40
0.6039943102976725
 40
0.7997054498290945
 40
1.0
 40
1.0
 40
1.0
 40
1.0
 10
5.575761803732386
 20
3.548372950840343
 30
0.0
 10
5.572544536018702
 20
3.547609690276662
 30
0.0
 10
5.566068026569374
 20
3.54607321128489
 30
0.0
 10
5.557118228024431
 20
3.545149476350006
 30
0.0
 10
5.550177319229683
 20
3.545172271950951
 30
0.0
 10
5.54560833802667
 20
3.546109948360045
 30
0.0
 10
5.545046152283236
 20
3.547612818555433
 30
0.0
 10
5.544761806013671
 20
3.548372950840343
 30
0.0
  0
LINE
  5
316
330
1F
100
AcDbEntity
  8
0
  6
Continuous
 62
     7
370
    30
100
AcDbLine
 10
5.5757618037
 20
3.4522413947
 30
0.0
 11
5.5757618037
 21
3.5483729508
 31
0.0
  0
LWPOLYLINE
  5
317
330
1F
100
AcDbEntity
  8
0
  6
Continuous
 62
     7
370
    30
100
AcDbPolyline
 90
        9
 70
   128
 43
0.0
 10
5.5757618037
 20
3.5483729508
 10
5.5753872947
 20
3.5494267387
 10
5.5750218789
 20
3.5504550068
 10
5.5746744296
 20
3.5514326755
 10
5.5743533617
 20
3.5523359851
 10
5.5740664942
 20
3.5531432291
 10
5.5738207662
 20
3.5538346077
 10
5.5736221634
 20
3.5543934013
 10
5.5734754893
 20
3.5548061165
  0
LINE
  5
318
330
1F
100
AcDbEntity
  8
0
  6
Continuous
 62
     7
370
    30
100
AcDbLine
 10
5.5757618037
 20
3.952241352
 30
0.0
 11
5.544761806
 21
3.952241352
 31
0.0
  0
LINE
  5
319
330
1F
100
AcDbEntity
  8
0
  6
Continuous
 62
     7
370
    30
100
AcDbLine
 10
5.5757618037
 20
3.7301097714
 30
0.0
 11
5.5757618037
 21
3.952241352
 31
0.0
  0
SPLINE
  5
31A
330
1F
100
AcDbEntity
  8
0
  6
Continuous
 62
     7
370
    30
100
AcDbSpline
210
0.0
220
0.0
230
1.0
 70
     8
 71
     3
 72
    12
 73
     8
 74
     0
 42
0.000000001
 43
0.00000001
 40
0.0
 40
0.0
 40
0.0
 40
0.0
 40
0.2013236510560601
 40
0.4052732227264446
 40
0.6039974206555412
 40
0.7997034718464634
 40
1.0
 40
1.0
 40
1.0
 40
1.0
 10
5.544761806013671
 20
3.730109771401084
 30
0.0
 10
5.54504955502354
 20
3.73087303068163
 30
0.0
 10
5.545628806233985
 20
3.732409504646713
 30
0.0
 10
5.550355671567028
 20
3.733333261651294
 30
0.0
 10
5.557402455573625
 20
3.733310402883054
 30
0.0
 10
5.566232976174484
 20
3.732372975386573
 30
0.0
 10
5.572561076021708
 20
3.730869980321568
 30
0.0
 10
5.575761803732386
 20
3.730109771401084
 30
0.0
  0
LWPOLYLINE
  5
31B
330
1F
100
AcDbEntity
  8
0
  6
Continuous
 62
     7
370
    30
100
AcDbPolyline
 90
        9
 70
   128
 43
0.0
 10
5.5757618037
 20
3.7301097714
 10
5.5753872947
 20
3.7290559836
 10
5.5750218789
 20
3.7280277155
 10
5.5746744296
 20
3.7270501934
 10
5.5743533617
 20
3.7261467372
 10
5.5740664942
 20
3.7253394932
 10
5.5738207662
 20
3.7246481145
 10
5.5736221634
 20
3.7240893209
 10
5.5734754893
 20
3.7236766057
  0
LINE
  5
31C
330
1F
100
AcDbEntity
  8
0
  6
Continuous
 62
     7
370
    30
100
AcDbLine
 10
7.5877617609
 20
3.4522413947
 30
0.0
 11
7.6187617495
 21
3.4522413947
 31
0.0
  0
LINE
  5
31D
330
1F
100
AcDbEntity
  8
0
  6
Continuous
 62
     7
370
    30
100
AcDbLine
 10
7.5877617609
 20
3.548882465
 30
0.0
 11
7.5877617609
 21
3.4522413947
 31
0.0
  0
SPLINE
  5
31E
330
1F
100
AcDbEntity
  8
0
  6
Continuous
 62
     7
370
    30
100
AcDbSpline
210
0.0
220
0.0
230
1.0
 70
     8
 71
     3
 72
    12
 73
     8
 74
     0
 42
0.000000001
 43
0.00000001
 40
0.0
 40
0.0
 40
0.0
 40
0.0
 40
0.2008078138225112
 40
0.4043639488612183
 40
0.6023257151440569
 40
0.7970291850585265
 40
1.0
 40
1.0
 40
1.0
 40
1.0
 10
7.618761749489344
 20
3.548882464954393
 30
0.0
 10
7.618476268104565
 20
3.548099993525107
 30
0.0
 10
7.61790139814369
 20
3.546524341507418
 30
0.0
 10
7.613199060975163
 20
3.545569256766335
 30
0.0
 10
7.606187559964739
 20
3.545586288529709
 30
0.0
 10
7.597354710363508
 20
3.546543883941447
 30
0.0
 10
7.591003423548621
 20
3.548092208454899
 30
0.0
 10
7.587761760937189
 20
3.548882464954393
 30
0.0
  0
LWPOLYLINE
  5
31F
330
1F
100
AcDbEntity
  8
0
  6
Continuous
 62
     7
370
    30
100
AcDbPolyline
 90
        9
 70
   128
 43
0.0
 10
7.5877617609
 20
3.548882465
 10
7.5881432365
 20
3.5499268662
 10
7.5885154722
 20
3.5509461878
 10
7.5888696681
 20
3.5519159366
 10
7.5891973177
 20
3.5528129395
 10
7.589490501
 20
3.5536156369
 10
7.5897421781
 20
3.5543049623
 10
7.5899463357
 20
3.5548640492
 10
7.5900981339
 20
3.5552795511
  0
LINE
  5
320
330
1F
100
AcDbEntity
  8
0
  6
Continuous
 62
     7
370
    30
100
AcDbLine
 10
7.6187617495
 20
3.952241352
 30
0.0
 11
7.5877617609
 21
3.952241352
 31
0.0
  0
SPLINE
  5
321
330
1F
100
AcDbEntity
  8
0
  6
Continuous
 62
     7
370
    30
100
AcDbSpline
210
0.0
220
0.0
230
1.0
 70
     8
 71
     3
 72
    12
 73
     8
 74
     0
 42
0.000000001
 43
0.00000001
 40
0.0
 40
0.0
 40
0.0
 40
0.0
 40
0.2007989823248886
 40
0.4043607487111713
 40
0.6023206599490469
 40
0.7970306932974414
 40
1.0
 40
1.0
 40
1.0
 40
1.0
 10
7.587761760937189
 20
3.729600257287034
 30
0.0
 10
7.590967779692289
 20
3.730382732125786
 30
0.0
 10
7.597423928668666
 20
3.731958447838992
 30
0.0
 10
7.606359118892294
 20
3.732913464806817
 30
0.0
 10
7.613293873459809
 20
3.732896356282421
 30
0.0
 10
7.617900021465267
 20
3.73193911360911
 30
0.0
 10
7.618470557058362
 20
3.730390596279279
 30
0.0
 10
7.618761749489344
 20
3.729600257287034
 30
0.0
  0
LINE
  5
322
330
1F
100
AcDbEntity
  8
0
  6
Continuous
 62
     7
370
    30
100
AcDbLine
 10
7.5877617609
 20
3.952241352
 30
0.0
 11
7.5877617609
 21
3.7296002573
 31
0.0
  0
LWPOLYLINE
  5
323
330
1F
100
AcDbEntity
  8
0
  6
Continuous
 62
     7
370
    30
100
AcDbPolyline
 90
        9
 70
   128
 43
0.0
 10
7.5877617609
 20
3.7296002573
 10
7.5881432365
 20
3.728555856
 10
7.5885154722
 20
3.7275365345
 10
7.5888696681
 20
3.7265667857
 10
7.5891973177
 20
3.7256697827
 10
7.589490501
 20
3.7248670853
 10
7.5897421781
 20
3.7241779066
 10
7.5899463357
 20
3.7236188197
 10
7.5900981339
 20
3.7232031712
  0
ELLIPSE
  5
324
330
1F
100
AcDbEntity
  8
0
  6
Continuous
 62
     7
370
    30
100
AcDbEllipse
 10
5.5111734574
 20
3.6392413777
 30
0.0
 11
-0.143825519293344
 21
0.0
 31
0.0
210
0.0
220
0.0
230
1.0
 40
0.7071067812
 41
2.036525376531514
 42
4.246659930648119
  0
ELLIPSE
  5
325
330
1F
100
AcDbEntity
  8
0
  6
Continuous
 62
     7
370
    30
100
AcDbEllipse
 10
7.6537643663
 20
3.6392413777
 30
0.0
 11
0.1438255192933431
 21
0.0
 31
0.0
210
0.0
220
0.0
230
1.0
 40
0.7071067812
 41
2.047561133907996
 42
4.235624173271619
  0
LINE
  5
326
330
1F
100
AcDbEntity
  8
0
  6
Continuous
 62
     7
370
    30
100
AcDbLine
 10
7.550761855
 20
3.952241352
 30
0.0
 11
7.550761855
 21
4.0462414261
 31
0.0
  0
LINE
  5
327
330
1F
100
AcDbEntity
  8
0
  6
Continuous
 62
     7
370
    30
100
AcDbLine
 10
5.6127618013
 20
3.952241352
 30
0.0
 11
7.550761855
 21
3.952241352
 31
0.0
  0
LINE
  5
328
330
1F
100
AcDbEntity
  8
0
  6
Continuous
 62
     7
370
    30
100
AcDbLine
 10
5.6127618013
 20
4.0462414261
 30
0.0
 11
5.6127618013
 21
3.952241352
 31
0.0
  0
LINE
  5
329
330
1F
100
AcDbEntity
  8
0
  6
Continuous
 62
     7
370
    30
100
AcDbLine
 10
5.6127618013
 20
4.0462414261
 30
0.0
 11
7.550761855
 21
4.0462414261
 31
0.0
  0
LINE
  5
32A
330
1F
100
AcDbEntity
  8
0
  6
Continuous
 62
     7
370
    30
100
AcDbLine
 10
5.5757618037
 20
3.952241352
 30
0.0
 11
5.6127618013
 21
3.952241352
 31
0.0
  0
LINE
  5
32B
330
1F
100
AcDbEntity
  8
0
  6
Continuous
 62
     7
370
    30
100
AcDbLine
 10
7.550761855
 20
3.952241352
 30
0.0
 11
7.5877617609
 21
3.952241352
 31
0.0
  0
LINE
  5
32C
330
1F
100
AcDbEntity
  8
0
  6
Continuous
 62
     7
370
    30
100
AcDbLine
 10
7.5877617609
 20
3.4522413947
 30
0.0
 11
7.0817617396
 21
3.4522413947
 31
0.0
  0
LINE
  5
32D
330
1F
100
AcDbEntity
  8
0
  6
Continuous
 62
     7
370
    30
100
AcDbLine
 10
7.0817617396
 20
3.4522413947
 30
0.0
 11
7.0817617396
 21
3.7372413557
 31
0.0
  0
LINE
  5
32E
330
1F
100
AcDbEntity
  8
0
  6
Continuous
 62
     7
370
    30
100
AcDbLine
 10
7.0817617396
 20
3.7372413557
 30
0.0
 11
6.696001916
 21
3.7372413557
 31
0.0
  0
LINE
  5
32F
330
1F
100
AcDbEntity
  8
0
  6
Continuous
 62
     7
370
    30
100
AcDbLine
 10
6.6790376919
 20
3.7372413557
 30
0.0
 11
6.4844858727
 21
3.7372413557
 31
0.0
  0
LINE
  5
330
330
1F
100
AcDbEntity
  8
0
  6
Continuous
 62
     7
370
    30
100
AcDbLine
 10
6.467521722
 20
3.7372413557
 30
0.0
 11
6.081761825
 21
3.7372413557
 31
0.0
  0
LINE
  5
331
330
1F
100
AcDbEntity
  8
0
  6
Continuous
 62
     7
370
    30
100
AcDbLine
 10
6.081761825
 20
3.7372413557
 30
0.0
 11
6.081761825
 21
3.4522413947
 31
0.0
  0
LINE
  5
332
330
1F
100
AcDbEntity
  8
0
  6
Continuous
 62
     7
370
    30
100
AcDbLine
 10
6.081761825
 20
3.4522413947
 30
0.0
 11
5.5757618037
 21
3.4522413947
 31
0.0
  0
LINE
  5
333
330
1F
100
AcDbEntity
  8
0
  6
Continuous
 62
     7
370
    30
100
AcDbLine
 10
6.831761761
 20
3.7192413103
 30
0.0
 11
6.831761761
 21
3.7372413557
 31
0.0
  0
LINE
  5
334
330
1F
100
AcDbEntity
  8
0
  6
Continuous
 62
     7
370
    30
100
AcDbLine
 10
6.3317618037
 20
3.7372413557
 30
0.0
 11
6.3317618037
 21
3.7192413103
 31
0.0
  0
LINE
  5
335
330
1F
100
AcDbEntity
  8
0
  6
Continuous
 62
     7
370
    30
100
AcDbLine
 10
6.831761761
 20
3.7192413103
 30
0.0
 11
6.831761761
 21
3.6794040238
 31
0.0
  0
LINE
  5
336
330
1F
100
AcDbEntity
  8
0
  6
Continuous
 62
     7
370
    30
100
AcDbLine
 10
6.831761761
 20
3.666289242
 30
0.0
 11
6.831761761
 21
3.6252413828
 31
0.0
  0
LINE
  5
337
330
1F
100
AcDbEntity
  8
0
  6
Continuous
 62
     7
370
    30
100
AcDbLine
 10
6.831761761
 20
3.6252413828
 30
0.0
 11
6.7697617839
 21
3.6252413828
 31
0.0
  0
LINE
  5
338
330
1F
100
AcDbEntity
  8
0
  6
Continuous
 62
     7
370
    30
100
AcDbLine
 10
6.6553316458
 20
3.6252413828
 30
0.0
 11
6.4908810522
 21
3.6252413828
 31
0.0
  0
LINE
  5
339
330
1F
100
AcDbEntity
  8
0
  6
Continuous
 62
     7
370
    30
100
AcDbLine
 10
6.3937617808
 20
3.6252413828
 30
0.0
 11
6.3317618037
 21
3.6252413828
 31
0.0
  0
LINE
  5
33A
330
1F
100
AcDbEntity
  8
0
  6
Continuous
 62
     7
370
    30
100
AcDbLine
 10
6.3317618037
 20
3.6252413828
 30
0.0
 11
6.3317618037
 21
3.666289242
 31
0.0
  0
LINE
  5
33B
330
1F
100
AcDbEntity
  8
0
  6
Continuous
 62
     7
370
    30
100
AcDbLine
 10
6.3317618037
 20
3.6794040238
 30
0.0
 11
6.3317618037
 21
3.7192413103
 31
0.0
  0
LINE
  5
33C
330
1F
100
AcDbEntity
  8
0
  6
Continuous
 62
     7
370
    30
100
AcDbLine
 10
5.3687618042
 20
3.952241352
 30
0.0
 11
5.4317618049
 21
3.952241352
 31
0.0
  0
LINE
  5
33D
330
1F
100
AcDbEntity
  8
0
  6
Continuous
 62
     7
370
    30
100
AcDbLine
 10
5.3687618042
 20
3.952241352
 30
0.0
 11
5.3687618042
 21
3.3855836314
 31
0.0
  0
LINE
  5
33E
330
1F
100
AcDbEntity
  8
0
  6
Continuous
 62
     7
370
    30
100
AcDbLine
 10
5.3687618042
 20
3.3375424197
 30
0.0
 11
5.3687618042
 21
3.3272414054
 31
0.0
  0
LINE
  5
33F
330
1F
100
AcDbEntity
  8
0
  6
Continuous
 62
     7
370
    30
100
AcDbLine
 10
3.2947618607
 20
3.952241352
 30
0.0
 11
3.2947618607
 21
3.3855836314
 31
0.0
  0
LINE
  5
340
330
1F
100
AcDbEntity
  8
0
  6
Continuous
 62
     7
370
    30
100
AcDbLine
 10
3.2947618607
 20
3.952241352
 30
0.0
 11
3.2317617752
 21
3.952241352
 31
0.0
  0
LINE
  5
341
330
1F
100
AcDbEntity
  8
0
  6
Continuous
 62
     7
370
    30
100
AcDbLine
 10
3.2317617752
 20
3.9422414408
 30
0.0
 11
3.2317617752
 21
3.952241352
 31
0.0
  0
ELLIPSE
  5
342
330
1F
100
AcDbEntity
  8
0
  6
Continuous
 62
     7
370
    30
100
AcDbEllipse
 10
3.3019618051
 20
3.6392413777
 30
0.0
 11
0.0
 21
0.09450000000000003
 31
0.0
210
0.0
220
0.0
230
1.0
 40
0.0538748024
 41
0.4657290497384162
 42
2.675863603851616
  0
ARC
  5
343
330
1F
100
AcDbEntity
  8
0
  6
Continuous
 62
     7
370
    30
100
AcDbCircle
 10
3.3015948799
 20
3.5482470218
 30
0.0
 40
0.00683417947764
100
AcDbArc
 50
106.3115530383
 51
178.9441876512
  0
ARC
  5
344
330
1F
100
AcDbEntity
  8
0
  6
Continuous
 62
     7
370
    30
100
AcDbCircle
 10
3.3015948799
 20
3.7302357004
 30
0.0
 40
0.0068341794776387
100
AcDbArc
 50
181.0558123488
 51
253.6884469617
  0
ELLIPSE
  5
345
330
1F
100
AcDbEntity
  8
0
  6
Continuous
 62
     7
370
    30
100
AcDbEllipse
 10
5.3615618051
 20
3.6392413777
 30
0.0
 11
0.0
 21
0.09450000000000003
 31
0.0
210
0.0
220
0.0
230
1.0
 40
0.0538748024
 41
3.618357460701845
 42
5.806420500069189
  0
ARC
  5
346
330
1F
100
AcDbEntity
  8
0
  6
Continuous
 62
     7
370
    30
100
AcDbCircle
 10
5.3619507759
 20
3.7297311764
 30
0.0
 40
0.0068122863997064
100
AcDbArc
 50
286.6106722727
 51
358.8988168953
  0
ARC
  5
347
330
1F
100
AcDbEntity
  8
0
  6
Continuous
 62
     7
370
    30
100
AcDbCircle
 10
5.3619510005
 20
3.5487517166
 30
0.0
 40
0.006812058584531
100
AcDbArc
 50
1.099783561
 51
73.390727271
  0
SPLINE
  5
348
330
1F
100
AcDbEntity
  8
0
  6
Continuous
 62
     7
370
    30
100
AcDbSpline
210
0.0
220
0.0
230
1.0
 70
     8
 71
     3
 72
    12
 73
     8
 74
     0
 42
0.000000001
 43
0.00000001
 40
0.0
 40
0.0
 40
0.0
 40
0.0
 40
0.199114347792892
 40
0.3953125144832887
 40
0.595373462352055
 40
0.7998713307734019
 40
1.0
 40
1.0
 40
1.0
 40
1.0
 10
3.323475489002755
 20
3.723676605717563
 30
0.0
 10
3.321092923172112
 20
3.724383536120056
 30
0.0
 10
3.316362685999985
 20
3.725787043391492
 30
0.0
 10
3.309719915813874
 20
3.726650472967284
 30
0.0
 10
3.304336993311197
 20
3.72667146792566
 30
0.0
 10
3.300590852873643
 20
3.725821548807734
 30
0.0
 10
3.29997836680172
 20
3.7243864211955
 30
0.0
 10
3.299675430609728
 20
3.723676605717563
 30
0.0
  0
ELLIPSE
  5
349
330
1F
100
AcDbEntity
  8
0
  6
Continuous
 62
     7
370
    30
100
AcDbEllipse
 10
3.2611734574
 20
3.6392413777
 30
0.0
 11
0.1387343504688001
 21
0.0
 31
0.0
210
0.0
220
0.0
230
1.0
 40
0.6811579085
 41
5.178118030121318
 42
7.388252584237893
  0
SPLINE
  5
34A
330
1F
100
AcDbEntity
  8
0
  6
Continuous
 62
     7
370
    30
100
AcDbSpline
210
0.0
220
0.0
230
1.0
 70
     8
 71
     3
 72
    12
 73
     8
 74
     0
 42
0.000000001
 43
0.00000001
 40
0.0
 40
0.0
 40
0.0
 40
0.0
 40
0.1991075295630148
 40
0.3953106662230865
 40
0.5953659015628819
 40
0.799860252442381
 40
1.0
 40
1.0
 40
1.0
 40
1.0
 10
3.299675430609728
 20
3.554806116523864
 30
0.0
 10
3.299975305264256
 20
3.554099181861292
 30
0.0
 10
3.300570680284604
 20
3.552695624632437
 30
0.0
 10
3.304197145773132
 20
3.551832276561234
 30
0.0
 10
3.30950505153775
 20
3.551811238146143
 30
0.0
 10
3.316238600476181
 20
3.552661242237551
 30
0.0
 10
3.321080562283612
 20
3.554096306400546
 30
0.0
 10
3.323475489002755
 20
3.554806116523864
 30
0.0
  0
SPLINE
  5
34B
330
1F
100
AcDbEntity
  8
0
  6
Continuous
 62
     7
370
    30
100
AcDbSpline
210
0.0
220
0.0
230
1.0
 70
     8
 71
     3
 72
    12
 73
     8
 74
     0
 42
0.000000001
 43
0.00000001
 40
0.0
 40
0.0
 40
0.0
 40
0.0
 40
0.2018465980481038
 40
0.3970201187964184
 40
0.596255789692884
 40
0.8003198343818033
 40
1.0
 40
1.0
 40
1.0
 40
1.0
 10
5.340098179472017
 20
3.555279551054708
 30
0.0
 10
5.342511025911632
 20
3.554544654432941
 30
0.0
 10
5.347256949743676
 20
3.553099156976464
 30
0.0
 10
5.3539038850849
 20
3.552216884985395
 30
0.0
 10
5.359261320221593
 20
3.552201135707473
 30
0.0
 10
5.362989255082739
 20
3.553080697519518
 30
0.0
 10
5.363597408058639
 20
3.554551924767813
 30
0.0
 10
5.36389818286568
 20
3.555279551054708
 30
0.0
  0
ELLIPSE
  5
34C
330
1F
100
AcDbEntity
  8
0
  6
Continuous
 62
     7
370
    30
100
AcDbEllipse
 10
5.4037643663
 20
3.6392413777
 30
0.0
 11
0.138734350468801
 21
0.0
 31
0.0
210
0.0
220
0.0
230
1.0
 40
0.6811579085
 41
2.04756113390799
 42
4.235624173271612
  0
SPLINE
  5
34D
330
1F
100
AcDbEntity
  8
0
  6
Continuous
 62
     7
370
    30
100
AcDbSpline
210
0.0
220
0.0
230
1.0
 70
     8
 71
     3
 72
    12
 73
     8
 74
     0
 42
0.000000001
 43
0.00000001
 40
0.0
 40
0.0
 40
0.0
 40
0.0
 40
0.201839800722297
 40
0.3970202608046677
 40
0.5962507761259349
 40
0.8003202026197751
 40
0.9999999999999999
 40
0.9999999999999999
 40
0.9999999999999999
 40
0.9999999999999999
 10
5.36389818286568
 20
3.723203171186719
 30
0.0
 10
5.363592181705921
 20
3.723938070901748
 30
0.0
 10
5.362990275343453
 20
3.725383623639524
 30
0.0
 10
5.359336511765388
 20
3.726265829281149
 30
0.0
 10
5.354033367389499
 20
3.726281513553597
 30
0.0
 10
5.3473093006196
 20
3.725402285009337
 30
0.0
 10
5.342484400815233
 20
3.723930876661679
 30
0.0
 10
5.340098179472017
 20
3.723203171186719
 30
0.0
  0
LWPOLYLINE
  5
34E
330
1F
100
AcDbEntity
  8
0
  6
Continuous
 62
     7
370
    30
100
AcDbPolyline
 90
        9
 70
   128
 43
0.0
 10
3.3257618493
 20
3.5483729508
 10
3.3253872669
 20
3.5494267387
 10
3.3250219245
 20
3.5504550068
 10
3.3246744752
 20
3.5514326755
 10
3.3243534255
 20
3.5523359851
 10
3.3240665488
 20
3.5531432291
 10
3.3238207383
 20
3.5538346077
 10
3.323622154
 20
3.5543934013
 10
3.323475489
 20
3.5548061165
  0
SPLINE
  5
34F
330
1F
100
AcDbEntity
  8
0
  6
Continuous
 62
     7
370
    30
100
AcDbSpline
210
0.0
220
0.0
230
1.0
 70
     8
 71
     3
 72
    12
 73
     8
 74
     0
 42
0.000000001
 43
0.00000001
 40
0.0
 40
0.0
 40
0.0
 40
0.0
 40
0.2013241379556753
 40
0.4052715633195926
 40
0.6039943701813587
 40
0.7997055643242585
 40
1.0
 40
1.0
 40
1.0
 40
1.0
 10
3.325761849257193
 20
3.548372950840343
 30
0.0
 10
3.322544553028073
 20
3.547609691410449
 30
0.0
 10
3.316068038658371
 20
3.546073227151801
 30
0.0
 10
3.307118284651657
 20
3.545149470407032
 30
0.0
 10
3.300177355737111
 20
3.545172273036806
 30
0.0
 10
3.295608358374882
 20
3.546109947119322
 30
0.0
 10
3.295046195359508
 20
3.54761281835091
 30
0.0
 10
3.29476186070504
 20
3.548372950840343
 30
0.0
  0
LINE
  5
350
330
1F
100
AcDbEntity
  8
0
  6
Continuous
 62
     7
370
    30
100
AcDbLine
 10
3.2947618607
 20
3.4522413947
 30
0.0
 11
3.3257618493
 21
3.4522413947
 31
0.0
  0
LINE
  5
351
330
1F
100
AcDbEntity
  8
0
  6
Continuous
 62
     7
370
    30
100
AcDbLine
 10
3.3257618493
 20
3.4522413947
 30
0.0
 11
3.3257618493
 21
3.5483729508
 31
0.0
  0
SPLINE
  5
352
330
1F
100
AcDbEntity
  8
0
  6
Continuous
 62
     7
370
    30
100
AcDbSpline
210
0.0
220
0.0
230
1.0
 70
     8
 71
     3
 72
    12
 73
     8
 74
     0
 42
0.000000001
 43
0.00000001
 40
0.0
 40
0.0
 40
0.0
 40
0.0
 40
0.2013230707863518
 40
0.4052724566669076
 40
0.6039967903773595
 40
0.7997017510598045
 40
1.0
 40
1.0
 40
1.0
 40
1.0
 10
3.29476186070504
 20
3.730109771401084
 30
0.0
 10
3.295049567525753
 20
3.730873030927378
 30
0.0
 10
3.295628734382163
 20
3.732409506911416
 30
0.0
 10
3.30035564109247
 20
3.733333260544071
 30
0.0
 10
3.307402436166492
 20
3.73331040722479
 30
0.0
 10
3.316232958056774
 20
3.732372961683689
 30
0.0
 10
3.322561085290616
 20
3.730869979252523
 30
0.0
 10
3.325761849257193
 20
3.730109771401084
 30
0.0
  0
LWPOLYLINE
  5
353
330
1F
100
AcDbEntity
  8
0
  6
Continuous
 62
     7
370
    30
100
AcDbPolyline
 90
        9
 70
   128
 43
0.0
 10
3.3257618493
 20
3.7301097714
 10
3.3253872669
 20
3.7290559836
 10
3.3250219245
 20
3.7280277155
 10
3.3246744752
 20
3.7270501934
 10
3.3243534255
 20
3.7261467372
 10
3.3240665488
 20
3.7253394932
 10
3.3238207383
 20
3.7246481145
 10
3.323622154
 20
3.7240893209
 10
3.323475489
 20
3.7236766057
  0
LINE
  5
354
330
1F
100
AcDbEntity
  8
0
  6
Continuous
 62
     7
370
    30
100
AcDbLine
 10
3.3257618493
 20
3.952241352
 30
0.0
 11
3.2947618607
 21
3.952241352
 31
0.0
  0
LINE
  5
355
330
1F
100
AcDbEntity
  8
0
  6
Continuous
 62
     7
370
    30
100
AcDbLine
 10
3.3257618493
 20
3.7301097714
 30
0.0
 11
3.3257618493
 21
3.952241352
 31
0.0
  0
SPLINE
  5
356
330
1F
100
AcDbEntity
  8
0
  6
Continuous
 62
     7
370
    30
100
AcDbSpline
210
0.0
220
0.0
230
1.0
 70
     8
 71
     3
 72
    12
 73
     8
 74
     0
 42
0.000000001
 43
0.00000001
 40
0.0
 40
0.0
 40
0.0
 40
0.0
 40
0.2008078375626627
 40
0.404364025369466
 40
0.6023277023713746
 40
0.7970303940602076
 40
1.0
 40
1.0
 40
1.0
 40
1.0
 10
5.368761804180711
 20
3.548882464954393
 30
0.0
 10
5.368476324759769
 20
3.548099993409189
 30
0.0
 10
5.367901458712638
 20
3.546524341046231
 30
0.0
 10
5.363199131985031
 20
3.545569255118575
 30
0.0
 10
5.356187505907725
 20
3.545586285461327
 30
0.0
 10
5.34735470661992
 20
3.546543881754444
 30
0.0
 10
5.341003450365471
 20
3.54809220821784
 30
0.0
 10
5.337761806461997
 20
3.548882464954393
 30
0.0
  0
LWPOLYLINE
  5
357
330
1F
100
AcDbEntity
  8
0
  6
Continuous
 62
     7
370
    30
100
AcDbPolyline
 90
        9
 70
   128
 43
0.0
 10
5.3377618065
 20
3.548882465
 10
5.3381432271
 20
3.5499268662
 10
5.3385154994
 20
3.5509461878
 10
5.3388696862
 20
3.5519159366
 10
5.339197299
 20
3.5528129395
 10
5.3394904823
 20
3.5536156369
 10
5.3397421869
 20
3.5543049623
 10
5.3399463812
 20
3.5548640492
 10
5.3400981795
 20
3.5552795511
  0
LINE
  5
358
330
1F
100
AcDbEntity
  8
0
  6
Continuous
 62
     7
370
    30
100
AcDbLine
 10
5.3377618065
 20
3.4522413947
 30
0.0
 11
5.3687618042
 21
3.4522413947
 31
0.0
  0
LINE
  5
359
330
1F
100
AcDbEntity
  8
0
  6
Continuous
 62
     7
370
    30
100
AcDbLine
 10
5.3377618065
 20
3.548882465
 30
0.0
 11
5.3377618065
 21
3.4522413947
 31
0.0
  0
LINE
  5
35A
330
1F
100
AcDbEntity
  8
0
  6
Continuous
 62
     7
370
    30
100
AcDbLine
 10
5.3687618042
 20
3.952241352
 30
0.0
 11
5.3377618065
 21
3.952241352
 31
0.0
  0
SPLINE
  5
35B
330
1F
100
AcDbEntity
  8
0
  6
Continuous
 62
     7
370
    30
100
AcDbSpline
210
0.0
220
0.0
230
1.0
 70
     8
 71
     3
 72
    12
 73
     8
 74
     0
 42
0.000000001
 43
0.00000001
 40
0.0
 40
0.0
 40
0.0
 40
0.0
 40
0.2007982035977794
 40
0.4043595978670139
 40
0.6023200241333214
 40
0.797030512156618
 40
1.0
 40
1.0
 40
1.0
 40
1.0
 10
5.337761806461997
 20
3.729600257287034
 30
0.0
 10
5.340967810387169
 20
3.730382732285951
 30
0.0
 10
5.347423936162773
 20
3.731958449947931
 30
0.0
 10
5.356359098306025
 20
3.732913465752567
 30
0.0
 10
5.363293869015085
 20
3.732896355867087
 30
0.0
 10
5.367900061650194
 20
3.731939115104827
 30
0.0
 10
5.368470606983944
 20
3.730390596415091
 30
0.0
 10
5.368761804180711
 20
3.729600257287034
 30
0.0
  0
LINE
  5
35C
330
1F
100
AcDbEntity
  8
0
  6
Continuous
 62
     7
370
    30
100
AcDbLine
 10
5.3377618065
 20
3.952241352
 30
0.0
 11
5.3377618065
 21
3.7296002573
 31
0.0
  0
LWPOLYLINE
  5
35D
330
1F
100
AcDbEntity
  8
0
  6
Continuous
 62
     7
370
    30
100
AcDbPolyline
 90
        9
 70
   128
 43
0.0
 10
5.3377618065
 20
3.7296002573
 10
5.3381432271
 20
3.728555856
 10
5.3385154994
 20
3.7275365345
 10
5.3388696862
 20
3.7265667857
 10
5.339197299
 20
3.7256697827
 10
5.3394904823
 20
3.7248670853
 10
5.3397421869
 20
3.7241779066
 10
5.3399463812
 20
3.7236188197
 10
5.3400981795
 20
3.7232031712
  0
ELLIPSE
  5
35E
330
1F
100
AcDbEntity
  8
0
  6
Continuous
 62
     7
370
    30
100
AcDbEllipse
 10
3.2611734574
 20
3.6392413777
 30
0.0
 11
-0.143825519293344
 21
0.0
 31
0.0
210
0.0
220
0.0
230
1.0
 40
0.7071067812
 41
2.036525376531511
 42
4.246659930648127
  0
ELLIPSE
  5
35F
330
1F
100
AcDbEntity
  8
0
  6
Continuous
 62
     7
370
    30
100
AcDbEllipse
 10
5.4037643663
 20
3.6392413777
 30
0.0
 11
0.143825519293344
 21
0.0
 31
0.0
210
0.0
220
0.0
230
1.0
 40
0.7071067812
 41
2.047561133907986
 42
4.235624173271628
  0
LINE
  5
360
330
1F
100
AcDbEntity
  8
0
  6
Continuous
 62
     7
370
    30
100
AcDbLine
 10
3.3257618493
 20
3.952241352
 30
0.0
 11
3.3627617552
 21
3.952241352
 31
0.0
  0
LINE
  5
361
330
1F
100
AcDbEntity
  8
0
  6
Continuous
 62
     7
370
    30
100
AcDbLine
 10
3.3627617552
 20
3.952241352
 30
0.0
 11
5.3007618089
 21
3.952241352
 31
0.0
  0
LINE
  5
362
330
1F
100
AcDbEntity
  8
0
  6
Continuous
 62
     7
370
    30
100
AcDbLine
 10
5.3007618089
 20
3.952241352
 30
0.0
 11
5.3377618065
 21
3.952241352
 31
0.0
  0
LINE
  5
363
330
1F
100
AcDbEntity
  8
0
  6
Continuous
 62
     7
370
    30
100
AcDbLine
 10
5.3377618065
 20
3.4522413947
 30
0.0
 11
4.8317617852
 21
3.4522413947
 31
0.0
  0
LINE
  5
364
330
1F
100
AcDbEntity
  8
0
  6
Continuous
 62
     7
370
    30
100
AcDbLine
 10
4.8317617852
 20
3.4522413947
 30
0.0
 11
4.8317617852
 21
3.7372413557
 31
0.0
  0
LINE
  5
365
330
1F
100
AcDbEntity
  8
0
  6
Continuous
 62
     7
370
    30
100
AcDbLine
 10
4.8317617852
 20
3.7372413557
 30
0.0
 11
4.4460018881
 21
3.7372413557
 31
0.0
  0
LINE
  5
366
330
1F
100
AcDbEntity
  8
0
  6
Continuous
 62
     7
370
    30
100
AcDbLine
 10
4.4290377375
 20
3.7372413557
 30
0.0
 11
4.2344859183
 21
3.7372413557
 31
0.0
  0
LINE
  5
367
330
1F
100
AcDbEntity
  8
0
  6
Continuous
 62
     7
370
    30
100
AcDbLine
 10
4.2175216942
 20
3.7372413557
 30
0.0
 11
3.8317618706
 21
3.7372413557
 31
0.0
  0
LINE
  5
368
330
1F
100
AcDbEntity
  8
0
  6
Continuous
 62
     7
370
    30
100
AcDbLine
 10
3.8317618706
 20
3.7372413557
 30
0.0
 11
3.8317618706
 21
3.4522413947
 31
0.0
  0
LINE
  5
369
330
1F
100
AcDbEntity
  8
0
  6
Continuous
 62
     7
370
    30
100
AcDbLine
 10
3.8317618706
 20
3.4522413947
 30
0.0
 11
3.3257618493
 21
3.4522413947
 31
0.0
  0
LINE
  5
36A
330
1F
100
AcDbEntity
  8
0
  6
Continuous
 62
     7
370
    30
100
AcDbLine
 10
3.3627617552
 20
4.0462414261
 30
0.0
 11
3.3627617552
 21
3.952241352
 31
0.0
  0
LINE
  5
36B
330
1F
100
AcDbEntity
  8
0
  6
Continuous
 62
     7
370
    30
100
AcDbLine
 10
3.3627617552
 20
4.0462414261
 30
0.0
 11
5.3007618089
 21
4.0462414261
 31
0.0
  0
LINE
  5
36C
330
1F
100
AcDbEntity
  8
0
  6
Continuous
 62
     7
370
    30
100
AcDbLine
 10
5.3007618089
 20
3.952241352
 30
0.0
 11
5.3007618089
 21
4.0462414261
 31
0.0
  0
LINE
  5
36D
330
1F
100
AcDbEntity
  8
0
  6
Continuous
 62
     7
370
    30
100
AcDbLine
 10
4.5817618065
 20
3.7192413103
 30
0.0
 11
4.5817618065
 21
3.7372413557
 31
0.0
  0
LINE
  5
36E
330
1F
100
AcDbEntity
  8
0
  6
Continuous
 62
     7
370
    30
100
AcDbLine
 10
4.0817618492
 20
3.7372413557
 30
0.0
 11
4.0817618492
 21
3.7192413103
 31
0.0
  0
LINE
  5
36F
330
1F
100
AcDbEntity
  8
0
  6
Continuous
 62
     7
370
    30
100
AcDbLine
 10
4.5817618065
 20
3.7192413103
 30
0.0
 11
4.5817618065
 21
3.6794040238
 31
0.0
  0
LINE
  5
370
330
1F
100
AcDbEntity
  8
0
  6
Continuous
 62
     7
370
    30
100
AcDbLine
 10
4.5817618065
 20
3.666289242
 30
0.0
 11
4.5817618065
 21
3.6252413828
 31
0.0
  0
LINE
  5
371
330
1F
100
AcDbEntity
  8
0
  6
Continuous
 62
     7
370
    30
100
AcDbLine
 10
4.5817618065
 20
3.6252413828
 30
0.0
 11
4.5197618294
 21
3.6252413828
 31
0.0
  0
LINE
  5
372
330
1F
100
AcDbEntity
  8
0
  6
Continuous
 62
     7
370
    30
100
AcDbLine
 10
4.405331618
 20
3.6252413828
 30
0.0
 11
4.2408810977
 21
3.6252413828
 31
0.0
  0
LINE
  5
373
330
1F
100
AcDbEntity
  8
0
  6
Continuous
 62
     7
370
    30
100
AcDbLine
 10
4.1437618263
 20
3.6252413828
 30
0.0
 11
4.0817618492
 21
3.6252413828
 31
0.0
  0
LINE
  5
374
330
1F
100
AcDbEntity
  8
0
  6
Continuous
 62
     7
370
    30
100
AcDbLine
 10
4.0817618492
 20
3.6252413828
 30
0.0
 11
4.0817618492
 21
3.666289242
 31
0.0
  0
LINE
  5
375
330
1F
100
AcDbEntity
  8
0
  6
Continuous
 62
     7
370
    30
100
AcDbLine
 10
4.0817618492
 20
3.6794040238
 30
0.0
 11
4.0817618492
 21
3.7192413103
 31
0.0
  0
LINE
  5
376
330
1F
100
AcDbEntity
  8
0
  6
Continuous
 62
     7
370
    30
100
AcDbLine
 10
1.9567618107
 20
2.1752413784
 30
0.0
 11
1.9567618107
 21
2.1650396746
 31
0.0
  0
ARC
  5
377
330
1F
100
AcDbEntity
  8
0
  6
Continuous
 62
     7
370
    30
100
AcDbCircle
 10
1.9717618051
 20
2.1752413777
 30
0.0
 40
0.0150000000000003
100
AcDbArc
 50
90.0
 51
180.0
  0
LINE
  5
378
330
1F
100
AcDbEntity
  8
0
  6
Continuous
 62
     7
370
    30
100
AcDbLine
 10
1.9717618241
 20
2.190241378
 30
0.0
 11
3.166761766
 21
2.190241378
 31
0.0
  0
ARC
  5
379
330
1F
100
AcDbEntity
  8
0
  6
Continuous
 62
     7
370
    30
100
AcDbCircle
 10
3.1667618051
 20
2.2052413777
 30
0.0
 40
0.0150000000000001
100
AcDbArc
 50
270.0
 51
0.0
  0
LINE
  5
37A
330
1F
100
AcDbEntity
  8
0
  6
Continuous
 62
     7
370
    30
100
AcDbLine
 10
3.1817617794
 20
2.2052413776
 30
0.0
 11
3.1817617794
 21
2.3962413837
 31
0.0
  0
ARC
  5
37B
330
1F
100
AcDbEntity
  8
0
  6
Continuous
 62
     7
370
    30
100
AcDbCircle
 10
3.1667618051
 20
2.3962413777
 30
0.0
 40
0.0150000000000001
100
AcDbArc
 50
0.0
 51
90.0
  0
LINE
  5
37C
330
1F
100
AcDbEntity
  8
0
  6
Continuous
 62
     7
370
    30
100
AcDbLine
 10
3.166761766
 20
2.4112413787
 30
0.0
 11
3.0842618391
 21
2.4112413787
 31
0.0
  0
ARC
  5
37D
330
1F
100
AcDbEntity
  8
0
  6
Continuous
 62
     7
370
    30
100
AcDbCircle
 10
3.0842618051
 20
2.4262413777
 30
0.0
 40
0.0150000000000001
100
AcDbArc
 50
180.0
 51
270.0
  0
LINE
  5
37E
330
1F
100
AcDbEntity
  8
0
  6
Continuous
 62
     7
370
    30
100
AcDbLine
 10
3.0692618257
 20
2.4262413738
 30
0.0
 11
3.0692618257
 21
2.5149913919
 31
0.0
  0
ARC
  5
37F
330
1F
100
AcDbEntity
  8
0
  6
Continuous
 62
     7
370
    30
100
AcDbCircle
 10
3.0842618051
 20
2.5149913777
 30
0.0
 40
0.0149999999999997
100
AcDbArc
 50
90.0
 51
180.0
  0
LINE
  5
380
330
1F
100
AcDbEntity
  8
0
  6
Continuous
 62
     7
370
    30
100
AcDbLine
 10
3.0842618391
 20
2.5299913686
 30
0.0
 11
3.104261808
 21
2.5299913686
 31
0.0
  0
ARC
  5
381
330
1F
100
AcDbEntity
  8
0
  6
Continuous
 62
     7
370
    30
100
AcDbCircle
 10
3.1042618051
 20
2.5149913777
 30
0.0
 40
0.0149999999999997
100
AcDbArc
 50
0.0
 51
90.0
  0
LINE
  5
382
330
1F
100
AcDbEntity
  8
0
  6
Continuous
 62
     7
370
    30
100
AcDbLine
 10
3.1192618214
 20
2.5149913919
 30
0.0
 11
3.1192618214
 21
2.4762413695
 31
0.0
  0
ARC
  5
383
330
1F
100
AcDbEntity
  8
0
  6
Continuous
 62
     7
370
    30
100
AcDbCircle
 10
3.1342618051
 20
2.4762413777
 30
0.0
 40
0.0150000000000006
100
AcDbArc
 50
180.0
 51
270.0
  0
LINE
  5
384
330
1F
100
AcDbEntity
  8
0
  6
Continuous
 62
     7
370
    30
100
AcDbLine
 10
3.1342618348
 20
2.4612413928
 30
0.0
 11
3.166761766
 21
2.4612413928
 31
0.0
  0
ARC
  5
385
330
1F
100
AcDbEntity
  8
0
  6
Continuous
 62
     7
370
    30
100
AcDbCircle
 10
3.1667618051
 20
2.4762413777
 30
0.0
 40
0.0150000000000001
100
AcDbArc
 50
270.0
 51
0.0
  0
LINE
  5
386
330
1F
100
AcDbEntity
  8
0
  6
Continuous
 62
     7
370
    30
100
AcDbLine
 10
3.1817617794
 20
2.4762413695
 30
0.0
 11
3.1817617794
 21
3.0712413627
 31
0.0
  0
ARC
  5
387
330
1F
100
AcDbEntity
  8
0
  6
Continuous
 62
     7
370
    30
100
AcDbCircle
 10
3.1667618051
 20
3.0712413777
 30
0.0
 40
0.0150000000000001
100
AcDbArc
 50
0.0
 51
90.0
  0
LINE
  5
388
330
1F
100
AcDbEntity
  8
0
  6
Continuous
 62
     7
370
    30
100
AcDbLine
 10
3.166761766
 20
3.0862413761
 30
0.0
 11
3.1342618348
 21
3.0862413761
 31
0.0
  0
ARC
  5
389
330
1F
100
AcDbEntity
  8
0
  6
Continuous
 62
     7
370
    30
100
AcDbCircle
 10
3.1342618051
 20
3.0712413777
 30
0.0
 40
0.0150000000000006
100
AcDbArc
 50
90.0
 51
180.0
  0
LINE
  5
38A
330
1F
100
AcDbEntity
  8
0
  6
Continuous
 62
     7
370
    30
100
AcDbLine
 10
3.1192618214
 20
3.0712413627
 30
0.0
 11
3.1192618214
 21
3.032491377
 31
0.0
  0
ARC
  5
38B
330
1F
100
AcDbEntity
  8
0
  6
Continuous
 62
     7
370
    30
100
AcDbCircle
 10
3.1042618051
 20
3.0324913777
 30
0.0
 40
0.0150000000000001
100
AcDbArc
 50
270.0
 51
0.0
  0
LINE
  5
38C
330
1F
100
AcDbEntity
  8
0
  6
Continuous
 62
     7
370
    30
100
AcDbLine
 10
3.104261808
 20
3.0174913636
 30
0.0
 11
3.0842618391
 21
3.0174913636
 31
0.0
  0
ARC
  5
38D
330
1F
100
AcDbEntity
  8
0
  6
Continuous
 62
     7
370
    30
100
AcDbCircle
 10
3.0842618051
 20
3.0324913777
 30
0.0
 40
0.0150000000000001
100
AcDbArc
 50
180.0
 51
270.0
  0
LINE
  5
38E
330
1F
100
AcDbEntity
  8
0
  6
Continuous
 62
     7
370
    30
100
AcDbLine
 10
3.0692618257
 20
3.032491377
 30
0.0
 11
3.0692618257
 21
3.1899913709
 31
0.0
  0
ARC
  5
38F
330
1F
100
AcDbEntity
  8
0
  6
Continuous
 62
     7
370
    30
100
AcDbCircle
 10
3.0842618051
 20
3.1899913777
 30
0.0
 40
0.0150000000000006
100
AcDbArc
 50
90.0
 51
180.0
  0
LINE
  5
390
330
1F
100
AcDbEntity
  8
0
  6
Continuous
 62
     7
370
    30
100
AcDbLine
 10
3.0842618391
 20
3.2049913843
 30
0.0
 11
3.104261808
 21
3.2049913843
 31
0.0
  0
ARC
  5
391
330
1F
100
AcDbEntity
  8
0
  6
Continuous
 62
     7
370
    30
100
AcDbCircle
 10
3.1042618051
 20
3.1899913777
 30
0.0
 40
0.0150000000000001
100
AcDbArc
 50
0.0
 51
90.0
  0
LINE
  5
392
330
1F
100
AcDbEntity
  8
0
  6
Continuous
 62
     7
370
    30
100
AcDbLine
 10
3.1192618214
 20
3.1899913709
 30
0.0
 11
3.1192618214
 21
3.1512413852
 31
0.0
  0
ARC
  5
393
330
1F
100
AcDbEntity
  8
0
  6
Continuous
 62
     7
370
    30
100
AcDbCircle
 10
3.1342618051
 20
3.1512413777
 30
0.0
 40
0.0149999999999997
100
AcDbArc
 50
180.0
 51
270.0
  0
LINE
  5
394
330
1F
100
AcDbEntity
  8
0
  6
Continuous
 62
     7
370
    30
100
AcDbLine
 10
3.1342618348
 20
3.1362413718
 30
0.0
 11
3.166761766
 21
3.1362413718
 31
0.0
  0
ARC
  5
395
330
1F
100
AcDbEntity
  8
0
  6
Continuous
 62
     7
370
    30
100
AcDbCircle
 10
3.1667618051
 20
3.1512413777
 30
0.0
 40
0.0150000000000001
100
AcDbArc
 50
270.0
 51
0.0
  0
LINE
  5
396
330
1F
100
AcDbEntity
  8
0
  6
Continuous
 62
     7
370
    30
100
AcDbLine
 10
3.1817617794
 20
3.1512413852
 30
0.0
 11
3.1817617794
 21
3.9422414408
 31
0.0
  0
ARC
  5
397
330
1F
100
AcDbEntity
  8
0
  6
Continuous
 62
     7
370
    30
100
AcDbCircle
 10
3.1917618051
 20
3.9422413777
 30
0.0
 40
0.0100000000000002
100
AcDbArc
 50
90.0
 51
180.0
  0
LINE
  5
398
330
1F
100
AcDbEntity
  8
0
  6
Continuous
 62
     7
370
    30
100
AcDbLine
 10
3.1917618372
 20
3.952241352
 30
0.0
 11
3.221761864
 21
3.952241352
 31
0.0
  0
ARC
  5
399
330
1F
100
AcDbEntity
  8
0
  6
Continuous
 62
     7
370
    30
100
AcDbCircle
 10
3.2217618051
 20
3.9422413777
 30
0.0
 40
0.0100000000000002
100
AcDbArc
 50
0.0
 51
90.0
  0
LINE
  5
39A
330
1F
100
AcDbEntity
  8
0
  6
Continuous
 62
     7
370
    30
100
AcDbLine
 10
3.2317617752
 20
3.9422414408
 30
0.0
 11
3.2317617752
 21
3.3422413454
 31
0.0
  0
ARC
  5
39B
330
1F
100
AcDbEntity
  8
0
  6
Continuous
 62
     7
370
    30
100
AcDbCircle
 10
3.2467618051
 20
3.3422413777
 30
0.0
 40
0.0150000000000001
100
AcDbArc
 50
180.0
 51
270.0
  0
LINE
  5
39C
330
1F
100
AcDbEntity
  8
0
  6
Continuous
 62
     7
370
    30
100
AcDbLine
 10
3.2467617885
 20
3.3272414054
 30
0.0
 11
3.2787018996
 21
3.3272414054
 31
0.0
  0
ARC
  5
39D
330
1F
100
AcDbEntity
  8
0
  6
Continuous
 62
     7
370
    30
100
AcDbCircle
 10
3.2787018502
 20
3.3422413777
 30
0.0
 40
0.0150000000000003
100
AcDbArc
 50
270.0
 51
10.0
  0
LINE
  5
39E
330
1F
100
AcDbEntity
  8
0
  6
Continuous
 62
     7
370
    30
100
AcDbLine
 10
3.2934739956
 20
3.3448461153
 30
0.0
 11
3.2877618349
 21
3.3772413278
 31
0.0
  0
LINE
  5
39F
330
1F
100
AcDbEntity
  8
0
  6
Continuous
 62
     7
370
    30
100
AcDbLine
 10
3.2877618349
 20
3.3772413278
 30
0.0
 11
3.3213258205
 21
3.4172414123
 31
0.0
  0
LINE
  5
3A0
330
1F
100
AcDbEntity
  8
0
  6
Continuous
 62
     7
370
    30
100
AcDbLine
 10
3.3213258205
 20
3.4172414123
 30
0.0
 11
3.3277617728
 21
3.4172414123
 31
0.0
  0
ARC
  5
3A1
330
1F
100
AcDbEntity
  8
0
  6
Continuous
 62
     7
370
    30
100
AcDbCircle
 10
3.3277618051
 20
3.4072413777
 30
0.0
 40
0.0099999999999998
100
AcDbArc
 50
0.0
 51
90.0
  0
LINE
  5
3A2
330
1F
100
AcDbEntity
  8
0
  6
Continuous
 62
     7
370
    30
100
AcDbLine
 10
3.3377618306
 20
3.4072413545
 30
0.0
 11
3.3377618306
 21
3.3319340978
 31
0.0
  0
ARC
  5
3A3
330
1F
100
AcDbEntity
  8
0
  6
Continuous
 62
     7
370
    30
100
AcDbCircle
 10
3.2927618051
 20
3.3319340784
 30
0.0
 40
0.044999999999999
100
AcDbArc
 50
276.6997651778
 51
0.0
  0
ARC
  5
3A4
330
1F
100
AcDbEntity
  8
0
  6
Continuous
 62
     7
370
    30
100
AcDbCircle
 10
3.3067618051
 20
3.2127535431
 30
0.0
 40
0.0750000000000004
100
AcDbArc
 50
96.6997651778
 51
180.0
  0
LINE
  5
3A5
330
1F
100
AcDbEntity
  8
0
  6
Continuous
 62
     7
370
    30
100
AcDbLine
 10
3.2317617752
 20
3.2127535546
 30
0.0
 11
3.2317617752
 21
2.2052413776
 31
0.0
  0
ARC
  5
3A6
330
1F
100
AcDbEntity
  8
0
  6
Continuous
 62
     7
370
    30
100
AcDbCircle
 10
3.2467618051
 20
2.2052413777
 30
0.0
 40
0.0149999999999997
100
AcDbArc
 50
180.0
 51
270.0
  0
LINE
  5
3A7
330
1F
100
AcDbEntity
  8
0
  6
Continuous
 62
     7
370
    30
100
AcDbLine
 10
3.2467617885
 20
2.190241378
 30
0.0
 11
3.5667617319
 21
2.190241378
 31
0.0
  0
LINE
  5
3A8
330
1F
100
AcDbEntity
  8
0
  6
Continuous
 62
     7
370
    30
100
AcDbLine
 10
3.5817617453
 20
2.1752413784
 30
0.0
 11
3.5817617453
 21
2.1022413771
 31
0.0
  0
ARC
  5
3A9
330
1F
100
AcDbEntity
  8
0
  6
Continuous
 62
     7
370
    30
100
AcDbCircle
 10
3.5767618051
 20
2.1022413777
 30
0.0
 40
0.0050000000000003
100
AcDbArc
 50
270.0
 51
0.0
  0
LINE
  5
3AA
330
1F
100
AcDbEntity
  8
0
  6
Continuous
 62
     7
370
    30
100
AcDbLine
 10
3.5517618652
 20
2.1222413781
 30
0.0
 11
3.5517618652
 21
2.1286475311
 31
0.0
  0
LINE
  5
3AB
330
1F
100
AcDbEntity
  8
0
  6
Continuous
 62
     7
370
    30
100
AcDbLine
 10
3.5517618652
 20
2.1286475311
 30
0.0
 11
1.9715588398
 21
2.1500410499
 31
0.0
  0
ARC
  5
3AC
330
1F
100
AcDbEntity
  8
0
  6
Continuous
 62
     7
370
    30
100
AcDbCircle
 10
1.9717618051
 20
2.1650396754
 30
0.0
 40
0.0150000000000003
100
AcDbArc
 50
180.0
 51
269.22435068
  0
ARC
  5
3AD
330
1F
100
AcDbEntity
  8
0
  6
Continuous
 62
     7
370
    30
100
AcDbCircle
 10
3.5667618051
 20
2.1752413777
 30
0.0
 40
0.0150000000000001
100
AcDbArc
 50
0.0
 51
90.0
  0
ARC
  5
3AE
330
1F
100
AcDbEntity
  8
0
  6
Continuous
 62
     7
370
    30
100
AcDbCircle
 10
3.5767618051
 20
2.1222413777
 30
0.0
 40
0.0249999999999999
100
AcDbArc
 50
180.0
 51
270.0
  0
LINE
  5
3AF
330
1F
100
AcDbEntity
  8
0
  6
Continuous
 62
     7
370
    30
100
AcDbLine
 10
8.9419647704
 20
2.1500410499
 30
0.0
 11
7.361761745
 21
2.1286475311
 31
0.0
  0
LINE
  5
3B0
330
1F
100
AcDbEntity
  8
0
  6
Continuous
 62
     7
370
    30
100
AcDbLine
 10
7.361761745
 20
2.1286475311
 30
0.0
 11
7.361761745
 21
2.1222413781
 31
0.0
  0
LINE
  5
3B1
330
1F
100
AcDbEntity
  8
0
  6
Continuous
 62
     7
370
    30
100
AcDbLine
 10
7.3467618783
 20
2.190241378
 30
0.0
 11
7.6667618217
 21
2.190241378
 31
0.0
  0
ARC
  5
3B2
330
1F
100
AcDbEntity
  8
0
  6
Continuous
 62
     7
370
    30
100
AcDbCircle
 10
7.6667618051
 20
2.2052413777
 30
0.0
 40
0.0150000000000001
100
AcDbArc
 50
270.0
 51
0.0
  0
LINE
  5
3B3
330
1F
100
AcDbEntity
  8
0
  6
Continuous
 62
     7
370
    30
100
AcDbLine
 10
7.681761835
 20
2.2052413776
 30
0.0
 11
7.681761835
 21
3.2127535546
 31
0.0
  0
ARC
  5
3B4
330
1F
100
AcDbEntity
  8
0
  6
Continuous
 62
     7
370
    30
100
AcDbCircle
 10
7.6067618051
 20
3.2127535431
 30
0.0
 40
0.0750000000000004
100
AcDbArc
 50
0.0
 51
83.3002348222
  0
ARC
  5
3B5
330
1F
100
AcDbEntity
  8
0
  6
Continuous
 62
     7
370
    30
100
AcDbCircle
 10
7.6207618051
 20
3.3319340784
 30
0.0
 40
0.044999999999999
100
AcDbArc
 50
180.0
 51
263.3002348222
  0
LINE
  5
3B6
330
1F
100
AcDbEntity
  8
0
  6
Continuous
 62
     7
370
    30
100
AcDbLine
 10
7.5757617796
 20
3.3319340978
 30
0.0
 11
7.5757617796
 21
3.4072413545
 31
0.0
  0
ARC
  5
3B7
330
1F
100
AcDbEntity
  8
0
  6
Continuous
 62
     7
370
    30
100
AcDbCircle
 10
7.5857618051
 20
3.4072413777
 30
0.0
 40
0.0100000000000002
100
AcDbArc
 50
90.0
 51
180.0
  0
LINE
  5
3B8
330
1F
100
AcDbEntity
  8
0
  6
Continuous
 62
     7
370
    30
100
AcDbLine
 10
7.5857618374
 20
3.4172414123
 30
0.0
 11
7.5921977897
 21
3.4172414123
 31
0.0
  0
LINE
  5
3B9
330
1F
100
AcDbEntity
  8
0
  6
Continuous
 62
     7
370
    30
100
AcDbLine
 10
7.5921977897
 20
3.4172414123
 30
0.0
 11
7.6257617753
 21
3.3772413278
 31
0.0
  0
LINE
  5
3BA
330
1F
100
AcDbEntity
  8
0
  6
Continuous
 62
     7
370
    30
100
AcDbLine
 10
7.6257617753
 20
3.3772413278
 30
0.0
 11
7.6200496146
 21
3.3448461153
 31
0.0
  0
ARC
  5
3BB
330
1F
100
AcDbEntity
  8
0
  6
Continuous
 62
     7
370
    30
100
AcDbCircle
 10
7.63482176
 20
3.3422413777
 30
0.0
 40
0.0150000000000008
100
AcDbArc
 50
170.0
 51
270.0
  0
LINE
  5
3BC
330
1F
100
AcDbEntity
  8
0
  6
Continuous
 62
     7
370
    30
100
AcDbLine
 10
7.6348217106
 20
3.3272414054
 30
0.0
 11
7.6667618217
 21
3.3272414054
 31
0.0
  0
ARC
  5
3BD
330
1F
100
AcDbEntity
  8
0
  6
Continuous
 62
     7
370
    30
100
AcDbCircle
 10
7.6667618051
 20
3.3422413777
 30
0.0
 40
0.0149999999999997
100
AcDbArc
 50
270.0
 51
0.0
  0
LINE
  5
3BE
330
1F
100
AcDbEntity
  8
0
  6
Continuous
 62
     7
370
    30
100
AcDbLine
 10
7.681761835
 20
3.3422413454
 30
0.0
 11
7.681761835
 21
3.9422414408
 31
0.0
  0
ARC
  5
3BF
330
1F
100
AcDbEntity
  8
0
  6
Continuous
 62
     7
370
    30
100
AcDbCircle
 10
7.6917618051
 20
3.9422413777
 30
0.0
 40
0.0100000000000002
100
AcDbArc
 50
90.0
 51
180.0
  0
LINE
  5
3C0
330
1F
100
AcDbEntity
  8
0
  6
Continuous
 62
     7
370
    30
100
AcDbLine
 10
7.6917617462
 20
3.952241352
 30
0.0
 11
7.721761773
 21
3.952241352
 31
0.0
  0
ARC
  5
3C1
330
1F
100
AcDbEntity
  8
0
  6
Continuous
 62
     7
370
    30
100
AcDbCircle
 10
7.7217618051
 20
3.9422413777
 30
0.0
 40
0.0100000000000016
100
AcDbArc
 50
0.0
 51
90.0
  0
LINE
  5
3C2
330
1F
100
AcDbEntity
  8
0
  6
Continuous
 62
     7
370
    30
100
AcDbLine
 10
7.7317618308
 20
3.9422414408
 30
0.0
 11
7.7317618308
 21
3.1512413852
 31
0.0
  0
ARC
  5
3C3
330
1F
100
AcDbEntity
  8
0
  6
Continuous
 62
     7
370
    30
100
AcDbCircle
 10
7.7467618051
 20
3.1512413777
 30
0.0
 40
0.0149999999999997
100
AcDbArc
 50
180.0
 51
270.0
  0
LINE
  5
3C4
330
1F
100
AcDbEntity
  8
0
  6
Continuous
 62
     7
370
    30
100
AcDbLine
 10
7.7467618442
 20
3.1362413718
 30
0.0
 11
7.7792617754
 21
3.1362413718
 31
0.0
  0
ARC
  5
3C5
330
1F
100
AcDbEntity
  8
0
  6
Continuous
 62
     7
370
    30
100
AcDbCircle
 10
7.7792618051
 20
3.1512413777
 30
0.0
 40
0.0149999999999997
100
AcDbArc
 50
270.0
 51
0.0
  0
LINE
  5
3C6
330
1F
100
AcDbEntity
  8
0
  6
Continuous
 62
     7
370
    30
100
AcDbLine
 10
7.7942617888
 20
3.1512413852
 30
0.0
 11
7.7942617888
 21
3.1899913709
 31
0.0
  0
ARC
  5
3C7
330
1F
100
AcDbEntity
  8
0
  6
Continuous
 62
     7
370
    30
100
AcDbCircle
 10
7.8092618051
 20
3.1899913777
 30
0.0
 40
0.0150000000000001
100
AcDbArc
 50
90.0
 51
180.0
  0
LINE
  5
3C8
330
1F
100
AcDbEntity
  8
0
  6
Continuous
 62
     7
370
    30
100
AcDbLine
 10
7.8092618021
 20
3.2049913843
 30
0.0
 11
7.8292617711
 21
3.2049913843
 31
0.0
  0
ARC
  5
3C9
330
1F
100
AcDbEntity
  8
0
  6
Continuous
 62
     7
370
    30
100
AcDbCircle
 10
7.8292618051
 20
3.1899913777
 30
0.0
 40
0.0150000000000001
100
AcDbArc
 50
0.0
 51
90.0
  0
LINE
  5
3CA
330
1F
100
AcDbEntity
  8
0
  6
Continuous
 62
     7
370
    30
100
AcDbLine
 10
7.8442617845
 20
3.1899913709
 30
0.0
 11
7.8442617845
 21
3.032491377
 31
0.0
  0
ARC
  5
3CB
330
1F
100
AcDbEntity
  8
0
  6
Continuous
 62
     7
370
    30
100
AcDbCircle
 10
7.8292618051
 20
3.0324913777
 30
0.0
 40
0.0149999999999997
100
AcDbArc
 50
270.0
 51
0.0
  0
LINE
  5
3CC
330
1F
100
AcDbEntity
  8
0
  6
Continuous
 62
     7
370
    30
100
AcDbLine
 10
7.8292617711
 20
3.0174913636
 30
0.0
 11
7.8092618021
 21
3.0174913636
 31
0.0
  0
ARC
  5
3CD
330
1F
100
AcDbEntity
  8
0
  6
Continuous
 62
     7
370
    30
100
AcDbCircle
 10
7.8092618051
 20
3.0324913777
 30
0.0
 40
0.0149999999999997
100
AcDbArc
 50
180.0
 51
270.0
  0
LINE
  5
3CE
330
1F
100
AcDbEntity
  8
0
  6
Continuous
 62
     7
370
    30
100
AcDbLine
 10
7.7942617888
 20
3.032491377
 30
0.0
 11
7.7942617888
 21
3.0712413627
 31
0.0
  0
ARC
  5
3CF
330
1F
100
AcDbEntity
  8
0
  6
Continuous
 62
     7
370
    30
100
AcDbCircle
 10
7.7792618051
 20
3.0712413777
 30
0.0
 40
0.0150000000000001
100
AcDbArc
 50
0.0
 51
90.0
  0
LINE
  5
3D0
330
1F
100
AcDbEntity
  8
0
  6
Continuous
 62
     7
370
    30
100
AcDbLine
 10
7.7792617754
 20
3.0862413761
 30
0.0
 11
7.7467618442
 21
3.0862413761
 31
0.0
  0
ARC
  5
3D1
330
1F
100
AcDbEntity
  8
0
  6
Continuous
 62
     7
370
    30
100
AcDbCircle
 10
7.7467618051
 20
3.0712413777
 30
0.0
 40
0.0150000000000001
100
AcDbArc
 50
90.0
 51
180.0
  0
LINE
  5
3D2
330
1F
100
AcDbEntity
  8
0
  6
Continuous
 62
     7
370
    30
100
AcDbLine
 10
7.7317618308
 20
3.0712413627
 30
0.0
 11
7.7317618308
 21
2.4762413695
 31
0.0
  0
ARC
  5
3D3
330
1F
100
AcDbEntity
  8
0
  6
Continuous
 62
     7
370
    30
100
AcDbCircle
 10
7.7467618051
 20
2.4762413777
 30
0.0
 40
0.0150000000000006
100
AcDbArc
 50
180.0
 51
270.0
  0
LINE
  5
3D4
330
1F
100
AcDbEntity
  8
0
  6
Continuous
 62
     7
370
    30
100
AcDbLine
 10
7.7467618442
 20
2.4612413928
 30
0.0
 11
7.7792617754
 21
2.4612413928
 31
0.0
  0
ARC
  5
3D5
330
1F
100
AcDbEntity
  8
0
  6
Continuous
 62
     7
370
    30
100
AcDbCircle
 10
7.7792618051
 20
2.4762413777
 30
0.0
 40
0.0149999999999997
100
AcDbArc
 50
270.0
 51
0.0
  0
LINE
  5
3D6
330
1F
100
AcDbEntity
  8
0
  6
Continuous
 62
     7
370
    30
100
AcDbLine
 10
7.7942617888
 20
2.4762413695
 30
0.0
 11
7.7942617888
 21
2.5149913919
 31
0.0
  0
ARC
  5
3D7
330
1F
100
AcDbEntity
  8
0
  6
Continuous
 62
     7
370
    30
100
AcDbCircle
 10
7.8092618051
 20
2.5149913777
 30
0.0
 40
0.0150000000000001
100
AcDbArc
 50
90.0
 51
180.0
  0
LINE
  5
3D8
330
1F
100
AcDbEntity
  8
0
  6
Continuous
 62
     7
370
    30
100
AcDbLine
 10
7.8092618021
 20
2.5299913686
 30
0.0
 11
7.8292617711
 21
2.5299913686
 31
0.0
  0
ARC
  5
3D9
330
1F
100
AcDbEntity
  8
0
  6
Continuous
 62
     7
370
    30
100
AcDbCircle
 10
7.8292618051
 20
2.5149913777
 30
0.0
 40
0.0150000000000001
100
AcDbArc
 50
0.0
 51
90.0
  0
LINE
  5
3DA
330
1F
100
AcDbEntity
  8
0
  6
Continuous
 62
     7
370
    30
100
AcDbLine
 10
7.8442617845
 20
2.5149913919
 30
0.0
 11
7.8442617845
 21
2.4262413738
 31
0.0
  0
ARC
  5
3DB
330
1F
100
AcDbEntity
  8
0
  6
Continuous
 62
     7
370
    30
100
AcDbCircle
 10
7.8292618051
 20
2.4262413777
 30
0.0
 40
0.0150000000000001
100
AcDbArc
 50
270.0
 51
0.0
  0
LINE
  5
3DC
330
1F
100
AcDbEntity
  8
0
  6
Continuous
 62
     7
370
    30
100
AcDbLine
 10
7.8292617711
 20
2.4112413787
 30
0.0
 11
7.7467618442
 21
2.4112413787
 31
0.0
  0
ARC
  5
3DD
330
1F
100
AcDbEntity
  8
0
  6
Continuous
 62
     7
370
    30
100
AcDbCircle
 10
7.7467618051
 20
2.3962413777
 30
0.0
 40
0.0150000000000001
100
AcDbArc
 50
90.0
 51
180.0
  0
LINE
  5
3DE
330
1F
100
AcDbEntity
  8
0
  6
Continuous
 62
     7
370
    30
100
AcDbLine
 10
7.7317618308
 20
2.3962413837
 30
0.0
 11
7.7317618308
 21
2.2052413776
 31
0.0
  0
ARC
  5
3DF
330
1F
100
AcDbEntity
  8
0
  6
Continuous
 62
     7
370
    30
100
AcDbCircle
 10
7.7467618051
 20
2.2052413777
 30
0.0
 40
0.0150000000000001
100
AcDbArc
 50
180.0
 51
270.0
  0
LINE
  5
3E0
330
1F
100
AcDbEntity
  8
0
  6
Continuous
 62
     7
370
    30
100
AcDbLine
 10
7.7467618442
 20
2.190241378
 30
0.0
 11
8.9417617861
 21
2.190241378
 31
0.0
  0
ARC
  5
3E1
330
1F
100
AcDbEntity
  8
0
  6
Continuous
 62
     7
370
    30
100
AcDbCircle
 10
8.9417618051
 20
2.1752413777
 30
0.0
 40
0.0150000000000006
100
AcDbArc
 50
0.0
 51
90.0
  0
LINE
  5
3E2
330
1F
100
AcDbEntity
  8
0
  6
Continuous
 62
     7
370
    30
100
AcDbLine
 10
8.9567617995
 20
2.1752413784
 30
0.0
 11
8.9567617995
 21
2.1650396746
 31
0.0
  0
ARC
  5
3E3
330
1F
100
AcDbEntity
  8
0
  6
Continuous
 62
     7
370
    30
100
AcDbCircle
 10
8.9417618051
 20
2.1650396754
 30
0.0
 40
0.0150000000000006
100
AcDbArc
 50
270.77564932
 51
0.0
  0
ARC
  5
3E4
330
1F
100
AcDbEntity
  8
0
  6
Continuous
 62
     7
370
    30
100
AcDbCircle
 10
7.3367618051
 20
2.1022413777
 30
0.0
 40
0.0049999999999999
100
AcDbArc
 50
180.0
 51
270.0
  0
LINE
  5
3E5
330
1F
100
AcDbEntity
  8
0
  6
Continuous
 62
     7
370
    30
100
AcDbLine
 10
7.3317618649
 20
2.1752413784
 30
0.0
 11
7.3317618649
 21
2.1022413771
 31
0.0
  0
ARC
  5
3E6
330
1F
100
AcDbEntity
  8
0
  6
Continuous
 62
     7
370
    30
100
AcDbCircle
 10
7.3467618051
 20
2.1752413777
 30
0.0
 40
0.0149999999999997
100
AcDbArc
 50
90.0
 51
180.0
  0
ARC
  5
3E7
330
1F
100
AcDbEntity
  8
0
  6
Continuous
 62
     7
370
    30
100
AcDbCircle
 10
7.3367618051
 20
2.1222413777
 30
0.0
 40
0.0249999999999999
100
AcDbArc
 50
270.0
 51
0.0
  0
LINE
  5
3E8
330
1F
100
AcDbEntity
  8
0
  6
Continuous
 62
     8
370
    30
100
AcDbLine
 10
6.3317618037
 20
3.7192413103
 30
0.0
 11
6.4427953277
 21
3.7192413103
 31
0.0
  0
LINE
  5
3E9
330
1F
100
AcDbEntity
  8
0
  6
Continuous
 62
     8
370
    30
100
AcDbLine
 10
6.4680136364
 20
3.7192413103
 30
0.0
 11
6.6955100016
 21
3.7192413103
 31
0.0
  0
LINE
  5
3EA
330
1F
100
AcDbEntity
  8
0
  6
Continuous
 62
     8
370
    30
100
AcDbLine
 10
6.7207283103
 20
3.7192413103
 30
0.0
 11
6.831761761
 21
3.7192413103
 31
0.0
  0
LINE
  5
3EB
330
1F
100
AcDbEntity
  8
0
  6
Continuous
 62
     8
370
    30
100
AcDbLine
 10
4.0817618492
 20
3.7192413103
 30
0.0
 11
4.1927952999
 21
3.7192413103
 31
0.0
  0
LINE
  5
3EC
330
1F
100
AcDbEntity
  8
0
  6
Continuous
 62
     8
370
    30
100
AcDbLine
 10
4.2180136086
 20
3.7192413103
 30
0.0
 11
4.4455099738
 21
3.7192413103
 31
0.0
  0
LINE
  5
3ED
330
1F
100
AcDbEntity
  8
0
  6
Continuous
 62
     8
370
    30
100
AcDbLine
 10
4.4707282825
 20
3.7192413103
 30
0.0
 11
4.5817618065
 21
3.7192413103
 31
0.0
  0
MTEXT
  5
3EE
330
1F
100
AcDbEntity
  8
FORMAT
100
AcDbMText
 10
4.4869530477
 20
1.8066064478
 30
0.0
 40
0.125
 41
0.0
 71
     1
 72
     1
  1
ML-40, TYPE 22, 2 SLOT
  7
SLDTEXTSTYLE0
 73
     1
 44
1.0
  0
ENDSEC
  0
SECTION
  2
OBJECTS
  0
DICTIONARY
  5
C
330
0
100
AcDbDictionary
281
     1
  3
ACAD_GROUP
350
D
  3
ACAD_LAYOUT
350
1A
  3
ACAD_MLINESTYLE
350
17
  3
ACAD_PLOTSETTINGS
350
19
  3
ACAD_PLOTSTYLENAME
350
E
  3
ACAD_SCALELIST
350
47
  0
DICTIONARY
  5
D
102
{ACAD_REACTORS
330
C
102
}
330
C
100
AcDbDictionary
281
     1
  0
DICTIONARY
  5
1A
102
{ACAD_REACTORS
330
C
102
}
330
C
100
AcDbDictionary
281
     1
  3
Layout1
350
1E
  3
Layout2
350
26
  3
Model
350
22
  0
DICTIONARY
  5
17
102
{ACAD_REACTORS
330
C
102
}
330
C
100
AcDbDictionary
281
     1
  3
Standard
350
18
  0
DICTIONARY
  5
19
102
{ACAD_REACTORS
330
C
102
}
330
C
100
AcDbDictionary
281
     1
  0
ACDBDICTIONARYWDFLT
  5
E
102
{ACAD_REACTORS
330
C
102
}
330
C
100
AcDbDictionary
281
     1
  3
Normal
350
F
100
AcDbDictionaryWithDefault
340
F
  0
DICTIONARY
  5
47
102
{ACAD_REACTORS
330
C
102
}
330
C
100
AcDbDictionary
281
     1
  3
A0
350
48
  3
A1
350
49
  3
A2
350
4A
  3
A3
350
4B
  3
A4
350
4C
  3
A5
350
4D
  3
A6
350
4E
  3
A7
350
4F
  3
A8
350
50
  3
A9
350
51
  3
B0
350
52
  3
B1
350
53
  3
B2
350
54
  3
B3
350
55
  3
B4
350
56
  3
B5
350
57
  3
B6
350
58
  3
B7
350
59
  3
B8
350
5A
  3
B9
350
5B
  3
C0
350
5C
  3
C1
350
5D
  3
C2
350
5E
  3
C3
350
5F
  3
C4
350
60
  3
C5
350
61
  3
C6
350
62
  3
C7
350
63
  3
C8
350
64
  3
C9
350
65
  3
D0
350
66
  3
D1
350
67
  3
D2
350
68
  0
LAYOUT
  5
1E
102
{ACAD_REACTORS
330
1A
102
}
330
1A
100
AcDbPlotSettings
  1

  2
none_device
  4

  6

 40
0.0
 41
0.0
 42
0.0
 43
0.0
 44
0.0
 45
0.0
 46
0.0
 47
0.0
 48
0.0
 49
0.0
140
0.0
141
0.0
142
1.0
143
1.0
 70
   688
 72
     0
 73
     0
 74
     5
  7

 75
    16
147
1.0
148
0.0
149
0.0
100
AcDbLayout
  1
Layout1
 70
     1
 71
     1
 10
0.0
 20
0.0
 11
12.0
 21
9.0
 12
0.0
 22
0.0
 32
0.0
 14
1.0000000000E+20
 24
1.0000000000E+20
 34
1.0000000000E+20
 15
-1.0000000000E+20
 25
-1.0000000000E+20
 35
-1.0000000000E+20
146
0.0
 13
0.0
 23
0.0
 33
0.0
 16
1.0
 26
0.0
 36
0.0
 17
0.0
 27
1.0
 37
0.0
 76
     0
330
1B
  0
LAYOUT
  5
26
102
{ACAD_REACTORS
330
1A
102
}
330
1A
100
AcDbPlotSettings
  1

  2
none_device
  4

  6

 40
0.0
 41
0.0
 42
0.0
 43
0.0
 44
0.0
 45
0.0
 46
0.0
 47
0.0
 48
0.0
 49
0.0
140
0.0
141
0.0
142
1.0
143
1.0
 70
   688
 72
     0
 73
     0
 74
     5
  7

 75
    16
147
1.0
148
0.0
149
0.0
100
AcDbLayout
  1
Layout2
 70
     1
 71
     2
 10
0.0
 20
0.0
 11
0.0
 21
0.0
 12
0.0
 22
0.0
 32
0.0
 14
0.0
 24
0.0
 34
0.0
 15
0.0
 25
0.0
 35
0.0
146
0.0
 13
0.0
 23
0.0
 33
0.0
 16
1.0
 26
0.0
 36
0.0
 17
0.0
 27
1.0
 37
0.0
 76
     0
330
23
  0
LAYOUT
  5
22
102
{ACAD_REACTORS
330
1A
102
}
330
1A
100
AcDbPlotSettings
  1

  2
none_device
  4
Letter_(8.50_x_11.00_Inches)
  6

 40
6.35
 41
6.35
 42
6.35000508
 43
6.35000508
 44
215.9
 45
279.4
 46
0.0
 47
0.0
 48
0.0
 49
0.0
140
0.0
141
0.0
142
1.0
143
1.0
 70
  1712
 72
     0
 73
     0
 74
     0
  7

 75
     0
147
1.0
148
0.0
149
0.0
100
AcDbLayout
  1
Model
 70
     1
 71
     0
 10
0.0
 20
0.0
 11
11.0
 21
8.5
 12
0.0
 22
0.0
 32
0.0
 14
0.0
 24
0.0
 34
0.0
 15
11.0
 25
8.5
 35
0.0
146
0.0
 13
0.0
 23
0.0
 33
0.0
 16
1.0
 26
0.0
 36
0.0
 17
0.0
 27
1.0
 37
0.0
 76
     0
330
1F
331
29
  0
MLINESTYLE
  5
18
102
{ACAD_REACTORS
330
17
102
}
330
17
100
AcDbMlineStyle
  2
Standard
 70
     0
  3

 62
   256
 51
90.0
 52
90.0
 71
     2
 49
0.5
 62
   256
  6
BYLAYER
 49
-0.5
 62
   256
  6
BYLAYER
  0
ACDBPLACEHOLDER
  5
F
102
{ACAD_REACTORS
330
E
102
}
330
E
  0
SCALE
  5
48
102
{ACAD_REACTORS
330
47
102
}
330
47
100
AcDbScale
 70
     0
300
1:1
140
1.0
141
1.0
290
     1
  0
SCALE
  5
49
102
{ACAD_REACTORS
330
47
102
}
330
47
100
AcDbScale
 70
     0
300
1:2
140
1.0
141
2.0
290
     0
  0
SCALE
  5
4A
102
{ACAD_REACTORS
330
47
102
}
330
47
100
AcDbScale
 70
     0
300
1:4
140
1.0
141
4.0
290
     0
  0
SCALE
  5
4B
102
{ACAD_REACTORS
330
47
102
}
330
47
100
AcDbScale
 70
     0
300
1:5
140
1.0
141
5.0
290
     0
  0
SCALE
  5
4C
102
{ACAD_REACTORS
330
47
102
}
330
47
100
AcDbScale
 70
     0
300
1:8
140
1.0
141
8.0
290
     0
  0
SCALE
  5
4D
102
{ACAD_REACTORS
330
47
102
}
330
47
100
AcDbScale
 70
     0
300
1:10
140
1.0
141
10.0
290
     0
  0
SCALE
  5
4E
102
{ACAD_REACTORS
330
47
102
}
330
47
100
AcDbScale
 70
     0
300
1:16
140
1.0
141
16.0
290
     0
  0
SCALE
  5
4F
102
{ACAD_REACTORS
330
47
102
}
330
47
100
AcDbScale
 70
     0
300
1:20
140
1.0
141
20.0
290
     0
  0
SCALE
  5
50
102
{ACAD_REACTORS
330
47
102
}
330
47
100
AcDbScale
 70
     0
300
1:30
140
1.0
141
30.0
290
     0
  0
SCALE
  5
51
102
{ACAD_REACTORS
330
47
102
}
330
47
100
AcDbScale
 70
     0
300
1:40
140
1.0
141
40.0
290
     0
  0
SCALE
  5
52
102
{ACAD_REACTORS
330
47
102
}
330
47
100
AcDbScale
 70
     0
300
1:50
140
1.0
141
50.0
290
     0
  0
SCALE
  5
53
102
{ACAD_REACTORS
330
47
102
}
330
47
100
AcDbScale
 70
     0
300
1:100
140
1.0
141
100.0
290
     0
  0
SCALE
  5
54
102
{ACAD_REACTORS
330
47
102
}
330
47
100
AcDbScale
 70
     0
300
2:1
140
2.0
141
1.0
290
     0
  0
SCALE
  5
55
102
{ACAD_REACTORS
330
47
102
}
330
47
100
AcDbScale
 70
     0
300
4:1
140
4.0
141
1.0
290
     0
  0
SCALE
  5
56
102
{ACAD_REACTORS
330
47
102
}
330
47
100
AcDbScale
 70
     0
300
8:1
140
8.0
141
1.0
290
     0
  0
SCALE
  5
57
102
{ACAD_REACTORS
330
47
102
}
330
47
100
AcDbScale
 70
     0
300
10:1
140
10.0
141
1.0
290
     0
  0
SCALE
  5
58
102
{ACAD_REACTORS
330
47
102
}
330
47
100
AcDbScale
 70
     0
300
100:1
140
100.0
141
1.0
290
     0
  0
SCALE
  5
59
102
{ACAD_REACTORS
330
47
102
}
330
47
100
AcDbScale
 70
     0
300
1/128" = 1'-0"
140
0.0078125
141
12.0
290
     0
  0
SCALE
  5
5A
102
{ACAD_REACTORS
330
47
102
}
330
47
100
AcDbScale
 70
     0
300
1/64" = 1'-0"
140
0.015625
141
12.0
290
     0
  0
SCALE
  5
5B
102
{ACAD_REACTORS
330
47
102
}
330
47
100
AcDbScale
 70
     0
300
1/32" = 1'-0"
140
0.03125
141
12.0
290
     0
  0
SCALE
  5
5C
102
{ACAD_REACTORS
330
47
102
}
330
47
100
AcDbScale
 70
     0
300
1/16" = 1'-0"
140
0.0625
141
12.0
290
     0
  0
SCALE
  5
5D
102
{ACAD_REACTORS
330
47
102
}
330
47
100
AcDbScale
 70
     0
300
3/32" = 1'-0"
140
0.09375
141
12.0
290
     0
  0
SCALE
  5
5E
102
{ACAD_REACTORS
330
47
102
}
330
47
100
AcDbScale
 70
     0
300
1/8" = 1'-0"
140
0.125
141
12.0
290
     0
  0
SCALE
  5
5F
102
{ACAD_REACTORS
330
47
102
}
330
47
100
AcDbScale
 70
     0
300
3/16" = 1'-0"
140
0.1875
141
12.0
290
     0
  0
SCALE
  5
60
102
{ACAD_REACTORS
330
47
102
}
330
47
100
AcDbScale
 70
     0
300
1/4" = 1'-0"
140
0.25
141
12.0
290
     0
  0
SCALE
  5
61
102
{ACAD_REACTORS
330
47
102
}
330
47
100
AcDbScale
 70
     0
300
3/8" = 1'-0"
140
0.375
141
12.0
290
     0
  0
SCALE
  5
62
102
{ACAD_REACTORS
330
47
102
}
330
47
100
AcDbScale
 70
     0
300
1/2" = 1'-0"
140
0.5
141
12.0
290
     0
  0
SCALE
  5
63
102
{ACAD_REACTORS
330
47
102
}
330
47
100
AcDbScale
 70
     0
300
3/4" = 1'-0"
140
0.75
141
12.0
290
     0
  0
SCALE
  5
64
102
{ACAD_REACTORS
330
47
102
}
330
47
100
AcDbScale
 70
     0
300
1" = 1'-0"
140
1.0
141
12.0
290
     0
  0
SCALE
  5
65
102
{ACAD_REACTORS
330
47
102
}
330
47
100
AcDbScale
 70
     0
300
1-1/2" = 1'-0"
140
1.5
141
12.0
290
     0
  0
SCALE
  5
66
102
{ACAD_REACTORS
330
47
102
}
330
47
100
AcDbScale
 70
     0
300
3" = 1'-0"
140
3.0
141
12.0
290
     0
  0
SCALE
  5
67
102
{ACAD_REACTORS
330
47
102
}
330
47
100
AcDbScale
 70
     0
300
6" = 1'-0"
140
6.0
141
12.0
290
     0
  0
SCALE
  5
68
102
{ACAD_REACTORS
330
47
102
}
330
47
100
AcDbScale
 70
     0
300
1'-0" = 1'-0"
140
12.0
141
12.0
290
     0
  0
ENDSEC
  0
EOF
